Baggy Trousers


 BAGGY TROUSERS

 ARTIST: MADNESS  
 ALBUM: DIVINE MADNESS 
 BASSIST: MARK BEDFORD
 TAB BY mousey241@hotmail.com

 
                                   (A)
G|----------------------------------|----------------------------------|
D|----------------------------------|----------------------------------|
A|--------------3--3--3--3-----3----|----------------3--3--3--3----3---|
E|-7--6--4---1--------------1-------|--7--6--4----1-------------1------|
			

                                   (B)
G|----------------------------------|----------------------------------|
D|----------------------------------|----------------------------------|
A|--------6--6--6--6-----6----------|-----8--8--8--8-----8-------------|
E|-----4--------------4-------------|--6--------------6--------7--6--4-|


                                   (C)
G|----------------------------------|----------------------------------|
D|----------------------------------|----------------------------------|
A|--------3--3--3--3-----3----------|--------6--6--6--6-----6----------|
E|-----1--------------1-------------|-----4--------------4-------------|


                                   (D)CHORUS             
G|----------------------------------|--------2-3-2-3-------------------|
D|----------------------------------|--------------------------2-3-2-3-|
A|-----8--8--8--8-----8-------------|-1-1-1----------------------------|
E|--6--------------6--------7--6--4-|------------------1-1-1-----------|


                                   (E)
G|--------2-3-2-3-------------------|--------2-3-2-3--------------------|
D|----------------------------------|---------------------------2-3-2-3-|
A|-1-1-1--------------3-3-3-2-3-3-3-|-1-1-1-----------------------------|
E|----------------------------------|------------------1-1-1------------|


                                   (F)
G|--------2-3-2-3-------------------|----------------------------------|
D|----------------------------------|----------------------------------|
A|-1-1-1------------3-3-3-3-2--1----|--------3--3--3--3-----3----------|
E|--------------------------------4-|-----1--------------1-------------|


                                   (G)
G|----------------------------------|----------------------------------|
D|----------------------------------|----------------------------------|
A|--------6--6--6--6-----6----------|-----8--8--8--8-----8-------------|
E|-----4--------------4-------------|--6--------------6--------7--6--4-|


                                   (H)
G|----------------------------------|----------------------------------|
D|----------------------------------|----------------------------------|
A|--------3--3--3--3-----3----------|--------6--6--6--6-----6----------|
E|-----1--------------1-------------|-----4--------------4-------------|


                                   (I)CHORUS
G|----------------------------------|--------2-3-2-3-------------------|
D|----------------------------------|--------------------------2-3-2-3-|
A|-----8--8--8--8-----8-------------|-1-1-1----------------------------|
E|--6--------------6--------7--6--4-|------------------1-1-1-----------|


                                   (J)
G|--------2-3-2-3-------------------|--------2-3-2-3-------------------|
D|----------------------------------|--------------------------2-3-2-3-|
A|-1-1-1--------------3-3-3-2-3-3-3-|-1-1-1----------------------------|
E|----------------------------------|------------------1-1-1-----------|


                                   (K)
G|--------2-3-2-3-------------------|----------------------------------|
D|----------------------------------|----------------------------------|
A|-1-1-1-------------3-3-3-3-3---4--|-5-5-5---7-7-7---5-5-5------------|
E|----------------------------------|-------------------------7-7-5-7--|


                                   (L)
G|----------------------------------|----------------------------------|
D|----------------------------------|----------------------------------|
A|-5-5-5---7-7-7---5-5-5------------|-5-5-5---7-7-7---5-5-5------------|
E|-------------------------7-7-5--7-|-------------------------7-7-5-7--|


                                   (M)
G|----------------------------------|----------------------------------|
D|----------------------------------|----------------------------------|
A|-5-5-5---7-7-7---5-5-5------------|--------3--3--3--3-----3----------|
E|-----------------------7--6--5--4-|-----1--------------1-------------|


                                   (N)
G|----------------------------------|----------------------------------|
D|----------------------------------|----------------------------------|
A|--------6--6--6--6-----6----------|-----8--8--8--8-----8-------------|
E|-----4--------------4-------------|--6--------------6--------7--6--4-|


                                   (O)
G|----------------------------------|----------------------------------|
D|----------------------------------|----------------------------------|
A|--------3--3--3--3-----3----------|--------6--6--6--6-----6----------|
E|-----1--------------1-------------|-----4--------------4-------------|


                                   (P)CHORUS
G|----------------------------------|--------2-3-2-3-------------------|
D|----------------------------------|--------------------------2-3-2-3-|
A|-----8--8--8--8-----8-------------|-1-1-1----------------------------|
E|--6--------------6--------7--6--4-|------------------1-1-1-----------|


                                   (Q)
G|--------2-3-2-3-------------------|--------2-3-2-3-------------------|
D|----------------------------------|--------------------------2-3-2-3-|
A|-1-1-1--------------3-3-3-2-3-3-3-|-1-1-1----------------------------|
E|----------------------------------|------------------1-1-1-----------|


                                   (R)
G|--------2-3-2-3-------------------|----------------------------------|
D|----------------------------------|----------------------------------|
A|-1-1-1-------------3-3-3-3-3---4--|-5-5-5---7-7-7---5-5-5------------|
E|----------------------------------|--------------------------7-7-5-7-|


                                   (S)
G|----------------------------------|----------------------------------|
D|----------------------------------|----------------------------------|
A|-5-5-5---7-7-7---5-5-5------------|-5-5-5---7-7-7---5-5-5------------|
E|--------------------------7-7-5-7-|--------------------------7-7-5-7-|


                                   (T)
G|----------------------------------|
D|----------------------------------|
A|-5-5-5---7-7-7---5-5-5------------|
E|-----------------------7--6--5--4-|


                                   (U)
G|----------------------------------|----------------------------------|
D|---------3-----3-----3-----3------|---------6-----6-----6-----6------|
A|----------------------------------|----------------------------------|
E|------1-----1-----1-----1---------|------4-----4-----4-----4---------|


                                   (V)
G|----------------------------------|----------------------------------|
D|---------8-----8-----8-----8------|----------------------------------|
A|----------------------------------|----------------------------------|
E|------6-----6-----6-----6---------|------7----6----5----4------------|

 REPEAT U & V UNTIL THE SONG FADES OUT

                                  

Back To Contents

Back To Main Stranglers Index