House Of Fun



 HOUSE OF FUN 
 
 ARTIST: MADNESS  
 ALBUM: DEVINE MADNESS
 BASSIST: MARK BEDFORD 
 TAB BY mousey241@hotmail.com

 
                                   (A)
G|----------------------------------|----------------------------------|
D|---------7--7---6--7---3--4-------|---------5--5---6--7--------------|
A|----5-----------------------------|---3---------------------6--7-----|
E|----------------------------------|----------------------------------|
			

                                   (B)
G|----------------------------------|----------------------------------|
D|---------7--7---6--7---3--4-------|---------5--5---6--7--------------|
A|---5------------------------------|---3---------------------6--7-----|
E|----------------------------------|----------------------------------|


                                   (C)
G|----------------------------------|----------------------------------|
D|---------7--7---6--7---3--4-------|---------5--5---6--7--------------|
A|---5------------------------------|---3---------------------6--7-----|
E|----------------------------------|----------------------------------|


                                   (D)
G|----------------6--7--------------|-----------------------6--7-------|
D|-----------------------6--7-------|----------------6--7--------------|
A|---------9--9---------------------|---------8--8---------------------|
E|---7------------------------------|---6------------------------------|


                                   (E)
G|----------------------------------|----------------------------------|
D|---------7--7---6--7---3--4-------|---------5--5---6--7--------------|
A|---5------------------------------|---3--------------------6--7------|
E|----------------------------------|----------------------------------|


                                   (F)
G|----------------------------------|----------------------------------|
D|---------7--7---6--7---3--4-------|---------5--5---6--7--------------|
A|---5------------------------------|---3--------------------6--7------|
E|----------------------------------|----------------------------------|


                                   (G)
G|-----------------------5----------|----------------------4-----------|
D|---3-----7--7---6--7------7-------|--------6--6---5--6------6--------|
A|----------------------------------|---7------------------------------|
E|----------------------------------|----------------------------------|


                                   (H)
G|----------------------------------|----------------------------------|
D|---------7--7---6--7---3--4-------|---------5--5---6--7--------------|
A|---5------------------------------|---3-------------------6--7-------|
E|----------------------------------|----------------------------------|


                                   (I)
G|----------------------------------|----------------------------------|
D|---------7--7---6--7---3--4-------|---------5--5---6--7--------------|
A|---5------------------------------|---3-------------------6--7-------|
E|----------------------------------|----------------------------------|


                                   (J)
G|----------------------------------|----------------------------------|
D|---------7--7---6--7---3--4-------|---------5--5---6--7--------------|
A|---5------------------------------|---3-------------------6--7-------|
E|----------------------------------|----------------------------------|


                                   (K)
G|-----------------------5----------|-----------------------4----------|
D|---3-----7--7---6--7------7-------|---------6--6---5--6-------6------|
A|----------------------------------|---7------------------------------|
E|----------------------------------|----------------------------------|


 CHORUS                            (L)
G|----------------------------------|----------------------------------|
D|-2--2--0----------2--2------------|-2--2--0----------2--2------------|
A|----------3--3-----------2--2-----|----------3--3-----------2--2-----|
E|----------------------------------|----------------------------------|


                                   (M)
G|----------------------------------|----------------------------------|
D|-4--4--2--0--0-----4--4-----------|-2--2--0--------------------------|
A|--------------------------4--4----|-----------3--3-------------------|
E|----------------------------------|----------------------------------|


                                   (N)
G|----------------------------------|----------------------------------|
D|---------7--7---6--7---3--4-------|---------5--5---6--7--------------|
A|---5------------------------------|---3-------------------6--7-------|
E|----------------------------------|----------------------------------|


                                   (O)
G|----------------------------------|----------------------------------|
D|---------7--7---6--7---3--4-------|---------5--5---6--7--------------|
A|---5------------------------------|---3-------------------6--7-------|
E|----------------------------------|----------------------------------|


                                   (P)
G|----------------------------------|----------------------------------|
D|---------7--7---6--7---3--4-------|---------5--5---6--7--------------|
A|---5------------------------------|---3-------------------6--7-------|
E|----------------------------------|----------------------------------|


                                   (Q)
G|----------------------------------|----------------------------------|
D|---------7--7---6--7---3--4-------|---------5--5---6--7--------------|
A|---5------------------------------|---3-------------------6--7-------|
E|----------------------------------|----------------------------------|


                                   (R)
G|-----------------------5----------|-----------------------4----------|
D|---3-----7--7---6--7------7-------|---------6--6---5--6-------6------|
A|----------------------------------|---7------------------------------|
E|----------------------------------|----------------------------------|


  CHORUS                           (S)
G|----------------------------------|----------------------------------|
D|-4--4--2--0--0-----4--4-----------|-4--4--2--0--0-----4--4-----------|
A|--------------------------4--4----|--------------------------4--4----|
E|----------------------------------|----------------------------------|


                                   (T)
G|----------------------------------|
D|-2--2--0--------------------------|
A|-----------3--3-------------------|
E|----------------------------------|


                                   (U)
G|----------------------------------|----------------------------------|
D|---------7--7---6--7---3--4-------|---------5--5---6--7--------------|
A|---5------------------------------|---3-------------------6--7-------|
E|----------------------------------|----------------------------------|


                                   (V)
G|----------------------------------|----------------------------------|
D|---------7--7---6--7---3--4-------|---------5--5---6--7--------------|
A|---5------------------------------|---3-------------------6--7-------|
E|----------------------------------|----------------------------------|


                                   (W)
G|----------------6--7--------------|-----------------------6--7-------|
D|-----------------------6--7-------|----------------6--7--------------|
A|---------9--9---------------------|---------8--8---------------------|
E|---7------------------------------|---6------------------------------|


                                   (X)
G|----------------------------------|----------------------------------|
D|--2---1---------------------------|--2---1---------------2---4--4--4-|
A|----------4---0-----4---6--6--6---|---------4---0-----4--------------|
E|----------------------------------|----------------------------------|


                                   (Y)
G|----------------------------------|----------------------------------|
D|--4--2--0-------------------------|----------------------------------|
A|-----------4--2-----2--0----------|----------------------------------|
E|--------------------------3--3--3-|--3--3--3--3-----------5--5--5--5-|

 REPEAT Q 4 TIMES

 REPEAT R

                                   (Z)
G|----------------------------------|----------------------------------|
D|-2--2--0-----------2--2-----------|-2--2--0---------2--2-----0--2--3-|
A|-----------3--3-----------2--2----|----------3--3---------2----------|
E|----------------------------------|----------------------------------|


                                   (AA)
G|----------------------------------|----------------------------------|
D|-4--4--2--0--0-----4--4-----------|-4--4--2--0--0-----4--4-----------|
A|--------------------------4--4----|--------------------------4--4----|
E|----------------------------------|----------------------------------|


 REPEAT Z & AA UNTIL THE SONG FADES OUT


                                  

Back To Contents

Back To Main Stranglers Index