My Girl


 MY GIRL
 
 ARTIST: MADNESS 
 ALBUM: DIVINE MADNESS
 BASSIST: MARK BEDFORD
 TAB BY mousey241@hotmail.com

 
                                   (A)
G|----------------------------------|----------------------------------|
D|----------------------------------|----------------------------------|
A|------------------------------4---|-------------------------2----4---|
E|----------------------------------|--------5-----2-----4-------------|
			

                                   (B)
G|----------------------------------|----------------------------------|
D|----------------------------------|----------------------------------|
A|-------------------------2----4---|-------------------------2----4---|
E|--------5-----2-----4-------------|--------5-----2-----4-------------|


                                   (C)
G|----------------------------------|----------------------------------|
D|----------------------------------|----------------------------------|
A|-4--4---2---0-----0--0--------4---|-4--4---2----------------5----4---|
E|-------------------------2--------|------------2-----2--2------------|


                                   (D)
G|----------------------------------|----------------------------------|
D|----------------------------------|----------------------------------|
A|-4--4---2---0-----0--0--------4---|-4--4---2----------------5--------|
E|-------------------------2--------|------------2-----2--2------------|


                                   (E)
G|----------------------------------|----------------------------------|
D|----------------------------------|----------------------------------|
A|-7-7-7-7-6-6-6-6--4-4-4-4-4-4-4-4-|-9-9-9-9-7-7-7-7--6-6-6-6-6-6-6-6-|
E|----------------------------------|----------------------------------|


                                   (F)
G|----------------------------------|----------------------------------|
D|----------------------------------|----------------------------------|
A|-7-7-7-7-6-6-6-6--4-4-4-4-2-2-2-2-|--------------------------------0-|
E|----------------------------------|-5-5-5-5-4-4-4-4--2-2-2-2-0-2-4---|


                                   (G)
G|----------------------------------|----------------------------------|
D|----------------------------------|----------------------------------|
A|-2--2--2--2--2--2--2--2--2--2--2--|-2--2--2--2--2----------------4---|
E|----------------------------------|----------------------------------|



                                   (H)
G|----------------------------------|----------------------------------|
D|----------------------------------|----------------------------------|
A|-4--4---2---0-----0--0--------4---|-4--4---2----------------5----4---|
E|-------------------------2--------|------------2-----2--2------------|


                                   (I)
G|----------------------------------|----------------------------------|
D|----------------------------------|----------------------------------|
A|-4--4---2---0-----0--0--------4---|-4--4---2----------------5--------|
E|-------------------------2--------|------------2-----2--2------------|


                                   (J)
G|----------------------------------|----------------------------------|
D|----------------------------------|----------------------------------|
A|-7-7-7-7-6-6-6-6--4-4-4-4-4-4-4-4-|-9-9-9-9-7-7-7-7--6-6-6-6-6-6-6-6-|
E|----------------------------------|----------------------------------|


                                   (K)
G|----------------------------------|----------------------------------|
D|----------------------------------|----------------------------------|
A|-7-7-7-7-6-6-6-6--4-4-4-4-2-2-2-2-|--------------------------------0-|
E|----------------------------------|-5-5-5-5-4-4-4-4--2-2-2-2-0-2-4---|



                                   (L)
G|----------------------------------|----------------------------------|
D|----------------------------------|----------------------------------|
A|-2--2--2--2--2--2--2--2--2--2--2--|-2--2--2--2--2----------------4---|
E|----------------------------------|----------------------------------|


                                   (M)
G|----------------------------------|----------------------------------|
D|----------------------------------|----------------------------------|
A|-4--4---2---0-----0--0--------4---|-4--4---2----------------5----4---|
E|-------------------------2--------|------------2-----2--2------------|



                                   (N)
G|----------------------------------|----------------------------------|
D|----------------------------------|----------------------------------|
A|-4--4---2---0-----0--0--------4---|-4--4---2----------------5----4---|
E|-------------------------2--------|------------2-----2--2------------|



                                   (O)
G|----------------------------------|----------------------------------|
D|----------------------------------|----------------------------------|
A|-4--4---2---0-----0--0--------4---|-4--4---2----------------5----4---|
E|-------------------------2--------|------------2-----2--2------------|



                                   (P)
G|----------------------------------|----------------------------------|
D|----------------------------------|----------------------------------|
A|-4--4---2---0-----0--0--------4---|-4--4---2----------------5--------|
E|-------------------------2--------|------------2-----2--2------------|


                                   (Q)
G|----------------------------------|----------------------------------|
D|----------------------------------|----------------------------------|
A|-7-7-7-7-6-6-6-6--4-4-4-4-4-4-4-4-|-9-9-9-9-7-7-7-7--6-6-6-6-6-6-6-6-|
E|----------------------------------|----------------------------------|


                                   (R)
G|----------------------------------|----------------------------------|
D|----------------------------------|----------------------------------|
A|-7-7-7-7-6-6-6-6--4-4-4-4-2-2-2-2-|--------------------------------0-|
E|----------------------------------|-5-5-5-5-4-4-4-4--2-2-2-2-0-2-4---|



                                   (S)
G|----------------------------------|----------------------------------|
D|----------------------------------|----------------------------------|
A|-2--2--2--2--2--2--2--2--2--2--2--|-2--2--2--2--2----------------4---|
E|----------------------------------|----------------------------------|


                                   (T)
G|----------------------------------|----------------------------------|
D|----------------------------------|----------------------------------|
A|----------------------------------|----2-------4---------------------|
E|--------5---------2------------4--|----------------------------------|

Back To Contents

Back To Main Stranglers Index