Start


 

 START

 ARTIST: THE JAM 
 ALBUM: SNAP
 BASSIST: BRUCE FOXTON
 TAB BY mousey241@hotmail.com


 
 
                                   (A)
G|----------------------------------|----------------------------------|
D|---------5--------------3---5-----|---------5--------------3---5-----|
A|--------------3---5---------------|--------------3---5---------------|
E|----3-----------------------------|----3-----------------------------|
			

                                   (B)
G|---------7--------------5---7-----|---------7--------------5---7-----|
D|--------------5---7---------------|--------------5---7---------------|
A|----5-----------------------------|----5-----------------------------|
E|----------------------------------|----------------------------------|


                                   (C)
G|---------4--------------2---4-----|---------5--------------3---5-----|
D|--------------2---4---------------|--------------3---5---------------|
A|----2-----------------------------|----3-----------------------------|
E|----------------------------------|----------------------------------|


                                   (D)
G|---------4--------------2---4-----|---------7--------------5---7-----|
D|--------------2---4---------------|---------------5---7--------------|
A|----2-----------------------------|----5-----------------------------|
E|----------------------------------|----------------------------------|


                                   (E)
G|---------4---------------2---4----|---------5--------------3---5-----|
D|--------------2---4---------------|---------------3---5--------------|
A|----2-----------------------------|----3-----------------------------|
E|----------------------------------|----------------------------------|


                                   (F)
G|---------4--------------2---4-----|---------9--------------7---9---7-|
D|--------------2---4---------------|---------------7---9--------------|
A|----2-----------------------------|----7-----------------------------|
E|----------------------------------|----------------------------------|


                                   (G)
G|---------9--------------7---9-----|----------------------------------|
D|--------------7---9---------------|-------------------------0--2-----|
A|----7-----------------------------|----0--0---2--2---3--3------------|
E|----------------------------------|----------------------------------|


                                   (H)
G|------------------------0--2------|----------------------------------|
D|----0--0---2--2---3--3------------|-------------------------0--2-----|
A|----------------------------------|----0--0---2--2---3--3------------|
E|----------------------------------|----------------------------------|


                                   (I)
G|----------------------------------|----------------------------------|
D|----0--0--------------------------|---------5--------------3---5-----|
A|-----------3--3---2--2---0--0-----|---------------3---5--------------|
E|----------------------------------|----3-----------------------------|


                                   (J)
G|----------------------------------|---------7--------------5---7-----|
D|---------5--------------3---5-----|---------------5---7--------------|
A|---------------3---5--------------|----5-----------------------------|
E|----3-----------------------------|----------------------------------|


                                   (K)
G|---------7--------------5---7-----|
D|---------------5---7--------------|
A|----5-----------------------------|
E|----------------------------------|


                                   (L)
G|---------4--------------2---4-----|---------5--------------3---5-----|
D|---------------2---4--------------|---------------3---5--------------|
A|----2-----------------------------|----3-----------------------------|
E|----------------------------------|----------------------------------|


                                   (M)
G|---------4--------------2---4-----|---------7--------------5---7-----|
D|---------------2---4--------------|---------------5---7--------------|
A|----2-----------------------------|----5-----------------------------|
E|----------------------------------|----------------------------------|


                                   (N)
G|---------4--------------2---4-----|---------5--------------3---5-----|
D|---------------2---4--------------|---------------3---5--------------|
A|----2-----------------------------|----3-----------------------------|
E|----------------------------------|----------------------------------|


                                   (O)
G|---------4--------------2---4-----|---------9--------------7---9---7-|
D|--------------2---4---------------|--------------7---9---------------|
A|----2-----------------------------|----7-----------------------------|
E|----------------------------------|----------------------------------|


                                   (P)
G|---------9--------------7---9-----|----------------------------------|
D|--------------7---9---------------|-------------------------0--2-----|
A|----7-----------------------------|----0--0---2--2---3--3------------|
E|----------------------------------|----------------------------------|


                                   (Q)
G|-------------------------0--2-----|----------------------------------|
D|----0--0---2--2---3--3------------|-------------------------0--2-----|
A|----------------------------------|----0--0---2--2---3--3------------|
E|----------------------------------|----------------------------------|


                                   (R)
G|----------------------------------|---------------------------3------|
D|----0--0--------------------------|---------5-------------3-------5--|
A|-----------3--3---2--2---0--0-----|---------------3---5--------------|
E|----------------------------------|----3-----------------------------|


                                   (S)
G|----------------------------------|---------7--------------5---7-----|
D|---------5--------------3---5-----|---------------5---7--------------|
A|---------------3---5--------------|----5-----------------------------|
E|----3-----------------------------|----------------------------------|


                                   (T)
G|---------7--------------5---7-----|
D|---------------5---7--------------|
A|----5-----------------------------|
E|----------------------------------|


                                   (U)
G|---------4---------------4--------|---------5---------------5--------|
D|---------------4---5--------------|---------------5---7--------------|
A|----2-----------------------------|----3-----------------------------|
E|----------------------------------|----------------------------------|


                                   (V)
G|---------4---------------4--------|---------5---------------5--------|
D|---------------4---5--------------|---------------5---7--------------|
A|----2-----------------------------|----3-----------------------------|
E|----------------------------------|----------------------------------|


                                   (W)
G|---------4---------------5--------|---------5---------------5--------|
D|---------------4---5--------------|---------------5---7--------------|
A|----2-----------------------------|----3-----------------------------|
E|----------------------------------|----------------------------------|


                                   (X)
G|----------------------------------|----------------------------------|
D|----------------------------------|----------------------------------|
A|-----5--5--5--5-----5--5--5--5----|-----5--5--5--5-----5--5--5--5----|
E|----------------------------------|----------------------------------|


                                   (Y)
G|---------------------------3------|---------------------------3------|
D|---------5-------------3-------5--|---------5-------------3-------5--|
A|---------------3---5--------------|---------------3---5--------------|
E|----3-----------------------------|----3-----------------------------|


                                   (Z)
G|---------------------------3------|---------------------------3------|
D|---------5-------------3-------5--|---------5-------------3-------5--|
A|---------------3---5--------------|---------------3---5--------------|
E|----3-----------------------------|---3------------------------------|


                                   (AA)
G|---------7--------------5---7-----|---------7--------------5---7-----|
D|---------------5---7--------------|---------------5---7--------------|
A|----5-----------------------------|----5-----------------------------|
E|----------------------------------|----------------------------------|

 REPEAT U TO X AGAIN

                                   (AB)
G|---------------------------3------|----------------------------------|
D|---------5-------------3-------5--|---------5--------------3---5-----|
A|---------------3---5--------------|---------------3---5--------------|
E|----3-----------------------------|----3-----------------------------|


                                   (AC)
G|---------7--------------5---7-----|---------7--------------5---7-----|
D|---------------5---7--------------|---------------5---7--------------|
A|----5-----------------------------|----5-----------------------------|
E|----------------------------------|----------------------------------|

 REPEAT AB AND AC ANOTHER 3 TIMES

                                   (AD)
G|---------------------------3------|----------------------------------|
D|---------5-------------3-------5--|---------5--------------3---5-----|
A|---------------3---5--------------|---------------3---5--------------|
E|----3-----------------------------|----3-----------------------------|


Back To Contents

Back To Main Stranglers Index