Suspect Device


  
ARTIST: STIFF LITTLE FINGERS
SONG: SUSPECT DEVICE
ALBUM: INFLAMMABLE MATERIAL
BASSIST: ALI McMORDIE
TAB BY: user@johnrosk.softnet.co.uk	

S = SLIDE

R = REST

Bass comes in after guitar intro

G|----------------------------------|---------------------------------|
D|----------------------------------|---------------------------------|
A|----------------------------------|---------------------------------|
E|----------------------------------|-----------------------------12S-|


			(A)
G|----------------------------------|---------------------------------|
D|----------------------------------|---------------------------------|
A|----------------------------------|------------------6---7---8---9--|
E|---7---7---7---7---7---7---7---7--|--7---7---7---7------------------|

				
			(B)
G|----------------------------------|---------------------------------|
D|----------------------------------|---------------------------------|
A|----------------------------------|------11--12--13--14--12--9---7--|
E|---5---5---5---5---5---5---5---S--|--12-----------------------------|

REPEAT A
	
			(C)
G|----------------------------------|---------------------------------|
D|----------------------------------|---------------------------------|
A|----------------------------------|--7---7---7---7---7---7---7---S--|
E|---5---5---5---5---5---5---5------|---------------------------------|


			(D)
G|----------------------------------|---------------------------------|
D|----------------------------------|---------------------------------|
A|---5-------5---7---0---0----------|--------------------------7------|
E|---------------------------7------|--0---0-------0---0---7----------|
		

			(E)
G|----------------------------------|---------------------------------|
D|----------------------------------|---------------------------------|
A|---5-------5---7---0---0----------|---------------------------------|
E|---------------------------7------|--0---0-------0---0---7---12--S--|

REPEAT A, B, A, C, D, E

			(F)
G|----------------------------------|---------------------------------|
D|----------------------------------|---------------------------------|
A|-----------7-----------7----------|----------7---------7-----7---7--|
E|---7---9--------------------------|--7---9--------------------------|


			(G)
G|----------------------------------|---------------------------------|
D|----------------------------------|---------------------------------|
A|----------------------4---5---5---|--7---7---7---7---7--------------|
E|--7---7---7---7---5---------------|----------------------7---10---9-|


			(H)
G|----------------------------------|---------------------------------|
D|----------------------------------|---------------------------------|
A|--7---R-------7---R--------7---R--|----------7---R--------7---R---7-|
E|----------------------------------|---------------------------------|

			(I)
G|----------------------------------|---------------------------------|
D|----------------------------------|---------------------------------|
A|----------------------------------|--7---7---7---7---7---7---7---7--|
E|---7---7---7---7---5---5---5---5--|---------------------------------|

REPEAT A, B, A, C, D, E 

REPEAT A, B, A, C, D, E 
	
REPEAT F, G, H, I

			(J)		
G|----------------------------------|---------------------------------|
D|----------------------------------|---------------------------------|
A|----------------------------------|---------------------------------|
E|---5---5---5---3---3---3---0------|--0---0---0---0---0---0---0---0--|

REPEAT J 
							
			(K)
G|----------------------------------|---------------------------------|
D|----------------------------------|---------------------------------|
A|----------------------------------|---------------------------------|
E|---5---5---5---3---3---3---12-----|--12--12--12--12--12--12--10--7--|


			(L)
G|----------------------------------|---------------------------------|
D|----------------------------------|---------------------------------|
A|----------------------------------|---------------------------------|
E|---5---5---5---3---3---3---0------|--HOLD---------------------------|

REST BASS FOR  6 BARS

REPEAT I

REPEAT A, B, A, C, D, E 

REPEAT F, G, H, I

			(M)
G|----------------------------------|---------------------------------|
D|----------------------------------|---------------------------------|
A|--7---7---7---7---7---7---7---7---|--7---7---7---7---7-S-14--18--19-|
E|----------------------------------|---------------------------------|

REPEAT M, M., M 

			(O)
G|----------------------------------|---------------------------------|
D|----------------------------------|---------------------------------|
A|--19--19--19--19--19--19--19--19--|-19--19--19--19--19--19--19--19--|
E|----------------------------------|---------------------------------|

			(P)
G|----------------------------------|---------------------------------|
D|----------------------------------|---------------------------------|
A|--19--R---------------------------|---------------------------------|
E|----------------------------------|---------------------------------|

 

Back To Contents

Back To Main Stranglers Index