Turning Japanese


 TURNING JAPANESE
 
 ARTIST: THE VAPORS  
 ALBUM: NEW CLEAR DAYS
 BASSIST: STEVE SMITH
 TAB BY mousey241@hotmail.com

 
                                   (A)
G|----------------------------------|----------------------------------|
D|-5--5--5--5---3--3----------3-----|----------------------------------|
A|---------------------5--5---------|-------2---------2---------2------|
E|----------------------------------|-0--3------0--3------0--3---------|
			

                                   (B)
G|----------------------------------|----------------------------------|
D|------------------5----------5----|-------5---------5----------------|
A|-------2----5--7-------5--7-------|-5--7------5--7------------2------|
E|-0--3-----------------------------|---------------------0--3---------|


                                   (C)
G|----------------------------------|----------------------------------|
D|----------------------------------|-------5---------5---------5------|
A|-------2---------2---------2------|-5--7------5--7------5--7---------|
E|-0--3------0--3------0--3---------|----------------------------------|


                                   (D)
G|----------------------------------|----------------------------------|
D|-------5--5-----------------------|----------------------------------|
A|-5--7------------3----7----5------|-------2---------2---------2------|
E|----------------------------------|-0--3------0--3------0--3---------|


                                   (E)
G|----------------------------------|----------------------------------|
D|-------------------5---------5----|-------5---------5----------------|
A|-------2----5--7-------5--7-------|-5--7------5--7-------------2-----|
E|-0--3-----------------------------|----------------------0--3--------|


                                   (F)
G|----------------------------------|----------------------------------|
D|----------------------------------|-------5---------5---------5------|
A|-------2---------2----------2-----|-5--7------5--7------5--7---------|
E|-0--3------0--3-------0--3--------|----------------------------------|


                                   (G)
G|----------------------------------|----------------------------------|
D|-------5--5-----------------------|----------------------------------|
A|-5--7--------------3---7---5------|------2---------2----------2------|
E|----------------------------------|-0--3------0--3------0--3---------|


                                   (H)
G|----------------------------------|----------------------------------|
D|------------------5---------5-----|-------5---------5----------------|
A|-------2----5--7------5--7--------|-5--7------5--7-------------2-----|
E|-0--3-----------------------------|----------------------0--3--------|


                                   (I)
G|----------------------------------|----------------------------------|
D|----------------------------------|-------5---------5----------5-----|
A|-------2---------2---------2------|-5--7------5--7-------5--7--------|
E|-0--3------0--3------0--3---------|----------------------------------|


                                   (J)
G|----------------------------------|----------------------------------|
D|-------5--5-----------------------|----------------------------------|
A|-5--7--------------3---7---3------|----5--7--5---3--3---7--7---5--5--|
E|----------------------------------|-3--------------------------------|


                                   (K)
G|----------------------------------|----------------------------------|
D|-5--------------------------------|----------------------------------|
A|----5--7--5---3--3---7--5---------|----3--5---3--5---3--5---3--5-----|
E|----------------------------------|----------------------------------|


                                   (L)
G|----------------------------------|----------------------------------|
D|----------------------------------|----------------------------------|
A|----3--5---3--5---3--5------------|-------2---------2---------2------|
E|----------------------------------|-0--3------0--3------0--3---------|


                                   (M)
G|----------------------------------|----------------------------------|
D|------------------5---------5-----|-------5---------5----------------|
A|-------2----5--7------5--7--------|-5--7------5--7-------------2-----|
E|-0--3-----------------------------|----------------------0--3--------|


                                   (N)
G|----------------------------------|----------------------------------|
D|----------------------------------|-------5---------5---------5------|
A|-------2---------2---------2------|-5--7------5--7------5--7---------|
E|-0--3------0--3------0--3---------|----------------------------------|


                                   (O)CHORUS
G|----------------------------------|----------------------------------|
D|-------5--5-----------------------|----------------------------------|
A|-5--7--------------3---7---5------|----------------------------------|
E|----------------------------------|---3-3--3--3-3--3--3-3--3--3-3--3-|


                                   (P)
G|----------------------------------|----------------------------------|
D|----------------------------------|----------------------------------|
A|---5-5--5--5-5--5--5-5--5--5-5--5-|----------------------------------|
E|----------------------------------|---1-1--1--1-1--1--1-1--1--1-1--1-|


                                   (Q)
G|----------------------------------|----------------------------------|
D|----------------------------------|----------------------------------|
A|---3-3--3--3-3--3--3-3--3--3-3----|----------------------------------|
E|----------------------------------|---3-3--3--3-3--3--3-3--3--3-3--3-|


                                   (R)
G|----------------------------------|----------------------------------|
D|----------------------------------|----------------------------------|
A|---5-5--5--5-5--5--5-5--5--5-5--5-|----------------------------------|
E|----------------------------------|---1-1--1--1-1--1--1-1--1--1-1--1-|


                                   (S)
G|----------------------------------|----------------------------------|
D|----------------------------------|--5----5--4----4--3----3----4--4--|
A|---3-3--3--3-3--3--3-3--3--3-3----|----------------------------------|
E|----------------------------------|----------------------------------|


                                   (T)
G|----------------------------------|----------------------------------|
D|-5--------------------------------|----------------------------------|
A|----5--7---3--3---7--5------------|----3--5---3--5---3--5---3--5-----|
E|----------------------------------|----------------------------------|


                                   (U)
G|----------------------------------|----------------------------------|
D|----------------------------------|----------------------------------|
A|----3--5---3--5---3--5------------|-------2---------2---------2------|
E|----------------------------------|-0--3------0--3------0--3---------|


                                   (V)
G|----------------------------------|----------------------------------|
D|-------------------5---------5----|-------5---------2----------------|
A|--------2----5--7------5--7-------|-5--7------5--7-------------2-----|
E|--0--3----------------------------|----------------------0--3--------|


                                   (W)
G|----------------------------------|----------------------------------|
D|----------------------------------|-------5----------5--------5------|
A|-------2---------2---------2------|-5--7-------5--7-----5--7---------|
E|-0--3------0--3------0--3---------|----------------------------------|


                                   (X)CHORUS
G|----------------------------------|----------------------------------|
D|-------5--5-----------------------|----------------------------------|
A|-5--7--------------3---7---5------|----------------------------------|
E|----------------------------------|---3-3--3--3-3--3--3-3--3--3-3--3-|


                                   (Y)
G|----------------------------------|----------------------------------|
D|----------------------------------|----------------------------------|
A|---5-5--5--5-5--5--5-5--5--5-5--5-|----------------------------------|
E|----------------------------------|---1-1--1--1-1--1--1-1--1--1-1--1-|


                                   (Z)
G|----------------------------------|----------------------------------|
D|----------------------------------|----------------------------------|
A|---3-3--3--3-3--3--3-3--3--3-3----|----------------------------------|
E|----------------------------------|---3-3--3--3-3--3--3-3--3--3-3--3-|


                                   (AA)
G|----------------------------------|----------------------------------|
D|----------------------------------|----------------------------------|
A|---5-5--5--5-5--5--5-5--5--5-5--5-|----------------------------------|
E|----------------------------------|---1-1--1--1-1--1--1-1--1--1-1--1-|


                                   (AB)
G|----------------------------------|----------------------------------|
D|----------------------------------|----------------------------------|
A|----3--3--3---3--3--3--3----------|----------------------------------|
E|----------------------------------|------3------3------3------3------|


                                   (AC)
G|----------------------------------|----------------------------------|
D|----------------------------------|----------------------------------|
A|---------------------------0---2--|------5---------5---------5---7---|
E|---3------3------3------3---------|-----------5---------5------------|


                                   (AD)
G|----------------------------------|----------------------------------|
D|----------------------------------|----------------------------------|
A|------8-----------8---------------|------8-------------8-------------|
E|-------------8-----------8--------|-------------8-------------8------|


                                   (AE)
G|----------------------------------|----------------------------------|
D|----------------------------------|----------------------------------|
A|------3-------------3-------------|-----------------------------2----|
E|-------------3-------------3------|--3-3--3-3-3-3---3-3--3-3-3-------|


                                   (AF)
G|----------------------------------|----------------------------------|
D|----------------------------------|----------------------------------|
A|------5--------------5------------|--------------------------0-------|
E|-------------5--------------5-----|--1--1-1-1-1---1--1-1--1----------|


                                   (AG)
G|----------------------------------|----------------------------------|
D|----------------------------------|----------------------------------|
A|------3--------------3------------|------------------------2---------|
E|-------------3--------------3-----|--3--3-3-3-3--3--3-3-3------------|


                                   (AH)
G|----------------------------------|----------------------------------|
D|----------------------------------|----------------------------------|
A|--5--5-5-5-5--5-5-5--5-5-5--------|----------------------------------|
E|----------------------------------|--1--1-1-1-1--1-1--1-1-1-1--------|


                                   (AI)
G|----------------------------------|----------------------------------|
D|----------------2--3--4-----------|----------------------------------|
A|--3--3-3--3--3--------------------|----------------------0-0--2-2--3-3|
E|----------------------------------|-3--3-3--3-3-3-3--3-3-------------|


                                   (AJ)
G|----------------------------------|----------------------------------|
D|----------------------------------|----------------------------------|
A|--5-5--5-5-5--5--3-3--2-2--0-0----|---------------------------0-0--2-2|
E|----------------------------------|--1--1-1-1-1-1---1-1--3-3---------|


                                   (AK)
G|----------------------------------|----------------------------------|
D|--------------------2-2--3--4-----|--5-5-5---------------------------|
A|--3--3-3-3-3-3--3-----------------|----------------------0-0--2-2--3-3|
E|----------------------------------|---------3-3-3-3-3--3-------------|


                                   (AL)
G|----------------------------------|----------------------------------|
D|----------------------------------|----------------------------------|
A|--5--5-5-5-5-5--5--3-3--2-2--0-0--|------------------------0-0--2-2--|
E|----------------------------------|--1--1-1-1-1--1--3-3--------------|


                                   (AM)CHORUS
G|----------------------------------|----------------------------------|
D|--------------------2-2--3--4-----|--5-------------------------------|
A|--3--3-3-3-3-3--3-----------------|---------------------------2------|
E|----------------------------------|-----3-3-3--3--3-3-3--3-3---------|


                                   (AN)
G|----------------------------------|----------------------------------|
D|----------------------------------|----------------------------------|
A|--5--5-5-5--5--5-5-5-5------------|----------------------------0-----|
E|------------------------5---------|--1--1-1-1-1-1--1-1-1--1-1--------|


                                   (AO)
G|----------------------------------|----------------------------------|
D|----------------------------------|----------------------------------|
A|--3--3-3-3-3--3-3-3--3-3-3--------|----------------------------2-----|
E|----------------------------------|--3--3-3-3-3-3--3-3-3--3-3--------|


                                   (AP)
G|----------------------------------|----------------------------------|
D|----------------------------------|----------------------------------|
A|--5--5-5-5-5-5--5-5-5--5-5-5------|----------------------------0-----|
E|----------------------------------|--1--1-1-1-1-1--1-1-1--1-1--------|


                                   (AQ)
G|----------------------------------|
D|----------------------------------|
A|--3--3-3--3-3-3--3-3-3--3-3-3-----|
E|----------------------------------|


                                   (AR)
G|----------------------------------|----------------------------------|
D|--5----5--4----4--3---3--4-----4--|--5----5--4----4--3--3--3--3------|
A|----------------------------------|----------------------------------|
E|----------------------------------|----------------------------------|


Back To Contents

Back To Main Stranglers Index