Wasted Life


  

ARTIST: STIFF LITTLE FINGERS
SONG: WASTED LIFE
ALBUM: INFLAMMABLE MATERIAL
BASSIST: ALI McMORDIE
TAB BY: user@johnrosk.softnet.co.uk	

S = SLIDE

R = REST

(5) DO NOT PICK

			(A)
G|----------------------------------|---------------------------------|
D|----------------------------------|---------------------------------|
A|----------------------------------|---------------------------------|
E|---5---HOLD-----------------------|---------------------------------|

HOLD FOR 8 BARS				

			(B)
G|----------------------------------|---------------------------------|
D|----------------------------------|---------------------------------|
A|----------------------------------|---------------------------------|
E|--------------0------1------2-----|---3---------3---------3---------|
		
			(C)
G|----------------------------------|---------------------------------|
D|----------------------------------|---------------------------------|
A|----------------------------------|---------------------------------|
E|---3---------3-------3------------|---5--HOLD-----------------------|


HOLD FOR 2 BARS

REPEAT B

			(D)
G|----------------------------------|---------------------------------|
D|----------------------------------|---------------------------------|
A|----------------------------------|---------------------------------|
E|---3---------3-------3---S--------|--5---5---5---5---5---5---5---5--|

			(E)
G|----------------------------------|---------------------------------|
D|----------------------------------|---------------------------------|
A|----------------------------------|---------------------------------|
E|---5---5---5---5---5---5---5---5--|--5---5---5---5---5---5---5---5--|
				
			(F)			
G|----------------------------------|---------------------------------|
D|----------------------------------|---------------------------------|
A|----------------------------------|---------------------------------|
E|---5---5---5---5---5---5---5---5--|--3------3---3--------3---3------|
							
			(G)
G|----------------------------------|---------------------------------|
D|----------------------------------|---------------------------------|
A|----------------------------------|---------------------------------|
E|---3---3-------3---3------3---R---|---5---5---5---5---5---5--5---5--|

REPEAT E 
			(H)
G|----------------------------------|---------------------------------|
D|---------------------------5------|---------------------------------|
A|-------------------5---7-------7--|---------------------------------|
E|---5---5---5---5------------------|--3-----3---3---3-----3---3---3--|

			(I)
G|----------------------------------|---------------------------------|
D|----------------------------------|---------------------------------|
A|----------------------------------|---------------------------------|
E|----3---3---3------3---3---3---3--|--0---0---0---0------0---3---4---|

			(J)
G|----------------------------------|---------------------------------|
D|----------------------------------|---------------------------------|
A|-----------------------4---5---6--|---------------------------------|
E|---5---5---5---5------------------|--0---0---0---0------0---3---4---|

REPEAT J 
			(K)
G|----------------------------------|---------------------------------|
D|----------------------------------|---------------------------------|
A|----------------------------------|-----------------10--12--14--15--|
E|---5---5---5---5---5---5---5---5--|--3------3-----------------------|


			(L)
G|----------------------------------|---------------------------------|
D|----------------------------------|---------------------------------|
A|--17--17--17--17--17--17--17--S---|---------------------------------|
E|----------------------------------|--5---5---5---5---5---5---5---5--|

REPEAT E, E, H,
			(M)
G|----------------------------------|---------------------------------|
D|----------------------------------|---------------------------------|
A|----------------------------------|---------------------------------|
E|----3---3---3------3---3---3---3--|--5---5---5---5---5---5---5---5--|

REPEAT E, H, M, E, H

REPEAT I, J, J, K, L

			(N)
G|----------------------------------|---------------------------------|
D|----------------------------------|---------------------------------|
A|----------------------------------|---------------------------------|
E|---5---5---5---5---5---5---5---5--|---2------2------2---2---2---R---|

			(O)
G|----------------------------------|---------------------------------|
D|----------------------------------|---------------------------------|
A|----------------------------------|---------------------------------|
E|---0------0-------0---0---0---0---|--2---2---2---2---2---2---2---R--|

			(P)
G|----------------------------------|---------------------------------|
D|----------------------------------|---------------------------------|
A|----------------------------------|---------------------------------|
E|---0------0-------0---0---0---0---|--2---2---2---2---2---2---2---1--|


			(Q)
G|----------------------------------|---------------------------------|
D|----------------------------------|---------------------------------|
A|----------------------------------|---------------------------------|
E|---0------0-------0---0---0---0---|-2---2---2---2---2---2---2---2-S-|


			(R)
G|----------------------------------|---------------------------------|
D|----------------------------------|---------------------------------|
A|----------------------------------|---------------------------------|
E|--16--16--16--16--16--16--16--16--|--16-R---------------------------|

			(S)
G|----------------------------------|---------------------------------|
D|----------------------------------|---------------------11--12--13--|
A|----------------------------------|--0---0---0---0--12--------------|
E|---0---0---0---0---0---0---0---0--|---------------------------------|


			(T)	
G|----------------------------------|---------------------------------|
D|--14--14--14--14--14--14--12--11--|---------------------11--12--13--|
A|----------------------------------|-12--12--12--12--12--------------|
E|----------------------------------|---------------------------------|

			(U)
G|----------------------------------|---------------------------------|
D|--14--14--14--14--14--14--12--11--|---------------------------------|
A|----------------------------------|-12--12--12--12--12--12--12--12--|
E|----------------------------------|---------------------------------|

			(V)
G|----------------------------------|---------------------------------|
D|-----------------------8--10--11--|-12--12--12--12--12--10--8-------|
A|--10--10--10--10--10--------------|-----------------------------10--|
E|----------------------------------|---------------------------------|


			(W)
G|----------------------------------|---------------------------------|
D|----------------------------------|---------------------------------|
A|--0---0---0---0---0---0---0---0---|-0---0---0---0---0---0---0---12S-|
E|----------------------------------|---------------------------------|

REPEAT E
			(X)
G|----------------------------------|---------------------------------|
D|----------------------------------|---------------------------------|
A|----------------------------------|--19--19--19--19--19--19--19--S--|
E|--5---5---5---5---5---5---5---5---|---------------------------------|
	

			(Y)
G|----------------------------------|---------------------------------|
D|----------------------------------|---------------------------------|
A|----------------------------------|---------------------------------|
E|--3------3---3--------3---3-------|--3-----3---3-----3---3---3---R--|

REPEAT E 

			(Z)
G|----------------------------------|---------------------------------|
D|----------------------------------|--------------------------5------|
A|----------------------------------|------------------5---7-------7--|
E|---5---5---5---5---5---5---5---5--|--5---5---5---5------------------|

REPEAT Y, E, Z, Y

REPEAT E, E, Y

			(AA)
G|----------------------------------|---------------------------------|
D|----------------------------------|---------------------------------|
A|----------------------------------|----------------------4---5---6--|
E|---0---0---0---0---0---0---3---4--|--5---5---5---5------------------|

REPEAT AA, 
			(AB)
G|----------------------------------|---------------------------------|
D|----------------------------------|---------------------------------|
A|----------------------------------|---------------------------------|
E|---0---0---0---0-------0---3---4--|--5---5---5---5---5---5---5---5--|


			(AC)
G|----------------------------------|---------------------------------|
D|----------------------------------|---------------------------------|
A|-----------------10--12--14--15---|--17--17--17--17--17--17--17--S--|
E|---3------3-----------------------|---------------------------------|


			(AD)	ONLY PICK FIRST NOTE IN THIS PEICE
G|----------------------------------|---------------------------------|
D|----------------------------------|---------------------------------|
A|----------------------------------|---------------------------------|
E|---5---5---5---5---5---5---5---5--|5-S-12-S-5-S-12-S-5-S-12-S-5-S-5-|

REPEAT AA
			(AE)
G|----------------------------------|---------------------------------|
D|----------------------------------|--19--19--17--15--18--19--17--15-|
A|---7---7---7---7---7---7---7-S-19-|---------------------------------|
E|----------------------------------|---------------------------------|

			(AF)
G|----------------------------------|------------------------------5--|
D|-----------------14--14--12--12---|------------------7---R---7------|
A|---------12--15-------------------|---------------------------------|
E|--0---0---------------------------|--5---5---5---5------------------|

TEMPO SLOWS

			(AG)
G|----------4-------5------6--------|---7-----------------------------|
D|---5------------------------------|----------4------5------6-----R--|
A|----------------------------------|---------------------------------|
E|----------------------------------|---------------------------------|

			(AH)
G|-------------------------------------|---------------------------------|
D|7-7-7-7-7-5-----7-9-12-14-19-17-15-12|---------------------------------|
A|------------7-5----------------------|-12-10-7-5-----------------------|
E|-------------------------------------|-----------5--HOLD---------------|


			(AI)
G|----------------------------------|---------------------------------|
D|----------------------------------|---------------------------------|
A|----------------------------------|---------------------------------|
E|---------------------5-S-17-S-(5)-|---------------------------------|


THIS IS THE BEST I CAN DO WITH THIS ONE
 

Back To Contents

Back To Main Stranglers Index