(I Could Be) Happy Yesterday


  
ARTIST: STIFF LITTLE FINGERS
SONG: (I COULD BE) HAPPY YESTERDAY
ALBUM: TINDERBOX
BASSIST: BRUCE FOXTON
TAB BY: user@johnrosk.softnet.co.uk
	
R = REST

S = SLIDE

( ) DO NOT PICK


			(A)
G|----------------------------------|---------------------------------|
D|----------------------------------|---------------------------------|
A|---5--------R---5---5---------0---|--------------2------5------0----|
E|----------------------------------|---3-----------------------------|

REPEAT A 				
	
			(B)
G|----------------------------------|---------------------------------|
D|----------------------------------|---------------------------------|
A|---5-------R---5---5----------0---|---------------------------------|
E|----------------------------------|---3------R---3------0---2---3---|


			(C)
G|----------------------------------|---------------------------------|
D|----------------------------------|---5---4-------------------------|
A|---0---0---0---0---0---0---0---0--|--------------5------7-------0---|
E|----------------------------------|---------------------------------|

REPEAT A, A, B, C

			(D)
G|----------------------------------|---------------------------------|
D|----------------------------------|---------------------------------|
A|---5----------5------------S------|---17------------17--17--17--S---|
E|----------------------------------|---------------------------------|

				
			(E)			
G|----------------------------------|---------------------------------|
D|----------------------------------|---------------------------------|
A|---5---5---5---5---5---5---5---5--|---------------------------------|
E|----------------------------------|--3---3---3---3---3---3---3---3--|

							
			(F)
G|----------------------------------|---------------------------------|
D|----------------------------------|---------------------------------|
A|----------------------------------|---------------------------------|
E|---7---7---7---7---7---7---7---7--|--5---5---5---5---5---5---5---5--|

REPEAT E

			(G)
G|----------------------------------|---------------------------------|
D|----------------------------------|---------------------------------|
A|----------------------------------|---------------------------------|
E|---7---7---7---7---7---7---7---7--|-5---5---5---5---5---5S(7)5S(7)R-|


			(H)
G|----------------------------------|---------------------------------|
D|----------------------------------|---------------------------------|
A|----------------------------------|---------------------------------|
E|---3-----R--3---3-----3---3---3---|---2------2---2----------2---S---|


			(I)
G|----------------------------------|---------------------------------|
D|----------------------------------|---------------------------------|
A|----------------------------------|---9----------7---------5--------|
E|----7------7---7------7---7---R---|---------------------------------|


			(J)
G|----------------------------------|---------------------------------|
D|----------------------------------|---------------------------------|
A|----------------------------------|--------------4------4---7---7---|
E|---3------3---3-------3---3---3---|--5------5-----------------------|

REPEAT A, A, B, C, A, A, B, C, D


			(K)
G|----------------------------------|---------------------------------|
D|----------7---7------------7------|------------------5---5----------|
A|---5---5-------R-5---5-------5-R--|----------5---5-----------5---5--|
E|----------------------------------|--3---3--------------------------|


			(L)
G|----------------------------------|---------------------------------|
D|-------------------9---9----------|------------------9---9----------|
A|-----------9---9-----------9---9--|----------7---7-----------7---0--|
E|---7---7--------------------------|--5---5--------------------------|


			(M)
G|-------------------7---7----------|---------------------------------|
D|-----------7---7-----------7--7---|------------------5---5----------|
A|---5---5--------------------------|----------5---5-----------5---5--|
E|----------------------------------|--3---3--------------------------|

REPEAT L, H, I

			(N)
G|----------------------------------|---------------------------------|
D|----------------------------------|---------------------------------|
A|----------------------------------|---------------------------------|
E|---3------3---3-------3---3---3---|--5------5---5--------5---5---5--|

REPEAT A 

			(O)
G|----------------------------------|---------------------------------|
D|----------------------------------|---------------------------------|
A|---5--------R---5---5---------0---|--------------2------5------0----|
E|----------------------------------|---3----3------------------------|

			(P)
G|----------------------------------|---------------------------------|
D|----------------------------------|---------------------------------|
A|---5-------R---5---5------5---R---|---------------------------------|
E|----------------------------------|---3------R---3-------0---2---3--|

REPEAT C, A, O, P, C


			(R)
G|----------------------------------|---------------------------------|
D|----------------------------------|---------------------------------|
A|---5-------5-------5---4------2---|------2---2-------2---2---2------|
E|----------------------------------|---------------------------------|


			(S)
G|----------------------------------|---------------------------------|
D|----------------------------------|---------------------------------|
A|------------------------5----4----|--2-------2---2---2---2---2---0--|
E|---2---2---2---2---2-R------------|---------------------------------|

REPEART S 

			(T)
G|----------------------------------|---------------------------------|
D|----------------------------------|---------------------------------|
A|----------------------------------|---------------------------------|
E|---2---2---2---2---2---0---2---0--|--3---3---3---3---3---3---3---3--|


			(U)
G|----------------------------------|---------------------------------|
D|----------------------------------|---------------------------------|
A|----------------------------------|---------------------------------|
E|---3---3---3---3---3---0---2---3--|--5---5---5---5---5---5---5---5--|


		(V)
G|----------------------------------|
D|----------------------------------|
A|----------------------------------|
E|--5---5---5---5--S-(9)-9--12--11--|

REPEAT A, A, B, C, A, A, B


			(W)
G|----------------------------------|---------------------------------|
D|----------------------------------|---5---4-------------------------|
A|---0---0---0---0---0---0---0---0--|--------------5------7-----------|
E|----------------------------------|---------------------------------|

	
		(X)
G|----------------------------------|---------------------------------|
D|----------------------------------|---------------------------------|
A|---5--R---------------------------|---------------------------------|
E|----------------------------------|---------------------------------|

REST ANOTHER 4 BARS

REPEAT C, A, A, B, C, A, A, B, C

REPEAT A, A, B, C, A, A, B, C


			(Y)
G|----------------------------------|---------------------------------|
D|----------------------------------|---------------------------------|
A|--5-------5---5---5----4-------2--|------2---2---2---2---0----------|
E|----------------------------------|------------------------------3--|


			(Z)
G|----------------------------------|---------------------------------|
D|----------------------------------|---------------------------------|
A|----------------------------------|---------------------------------|
E|---3---3---3---3---3---3---3---3--|--3-R----------------------------|


			(AA)
G|----------------------------------|---------------------------------|
D|----------------------------------|---------------------------------|
A|--5---R---------------------------|---------------------------------|
E|----------------------------------|---------------------------------|

                                  

Back To Contents

Back To Main Stranglers Index