Big In America





 SONG: BIG IN AMERICA
 ARTIST: THE STRANGLERS
 ALBUM: THE HITMEN
 BASSIST: JEAN JACQUES BURNEL
 TAB BY CHRIS@LOOPY0.DEMON.CO.UK

 
                                   (A)
G|----------------------------------|----------------------------------|
D|----------------------------------|----------------------------------|
A|--5----5--5------5----5--5--------|--5----5--5------5----5--5--------|
E|----------------------------------|----------------------------------|


                                   (B)
G|----------------------------------|----------------------------------|
D|----------------------------------|----------------------------------|
A|----------------------------------|----------------------------------|
E|--7----7--7------7----7--7--------|--7----7--7------7----------------|


                                   (C)
G|----------------------------------|----------------------------------|
D|--------------7---7--6------------|--------------7---7--6------------|
A|------7---5-----------------------|------7---5-----------------------|
E|--0-------------------------------|--0-------------------------------|


                                   (D)
G|----------------------------------|----------------------------------|
D|--------------7---7--6------------|--------------7---7--6------------|
A|------7---5-----------------------|------7---5-----------------------|
E|--0-------------------------------|--0-------------------------------|


                                   (E)
G|----------------------------------|----------------------------------|
D|--------------7---7--6------------|--------------7---7--6------------|
A|------7---5-----------------------|------7---5-----------------------|
E|--0-------------------------------|--0-------------------------------|


                                   (F)
G|----------------------------------|----------------------------------|
D|--------------7---7--6------------|----------------------------------|
A|------7---5-----------------------|----------------------------------|
E|--0-------------------------------|-5--5-3---5--5-0---5--5-3---5--5-0-|


                                   (G)
G|----------------------------------|----------------------------------|
D|--------------7---7--6------------|--------------7---7--6------------|
A|------7---5-----------------------|------7---5-----------------------|
E|--0-------------------------------|--0-------------------------------|


                                   (H)
G|----------------------------------|----------------------------------|
D|--------------7---7--6------------|--------------7---7--6------------|
A|------7---5-----------------------|------7---5-----------------------|
E|--0-------------------------------|--0-------------------------------|


                                   (I)
G|----------------------------------|----------------------------------|
D|--------------7---7--6------------|----------------------------------|
A|------7---5-----------------------|----------------------------------|
E|--0-------------------------------|-5--5-3---5--5-0---5--5-3---5--5-0-|


                                   (J)
G|----------------------------------|----------------------------------|
D|--------------7---7--6------------|--------------7---7--6------------|
A|------7---5-----------------------|------7---5-----------------------|
E|--0-------------------------------|--0-------------------------------|


                                   (K)
G|----------------------------------|----------------------------------|
D|----------------------------------|----------------------------------|
A|--4---4-------4---4-------4-------|----------5-----------5-----------|
E|----------4------------4----------|--3---3-------3---3-------3-------|


                                   (L)
G|----------------------------------|----------------------------------|
D|----------------------------------|----------------------------------|
A|--7---7-------7---7-------7-------|--4---4-------4---4-------4-------|
E|----------7-----------7-----------|----------4------------4----------|


                                   (M)
G|----------------------------------|----------------------------------|
D|----------------------------------|----------------------------------|
A|--3---3-------3---3-------3-------|----------5-----------5-----------|
E|----------3-----------3-----------|--3---3-------3---3-------3-------|
			

                                   (N)
G|----------------------------------|----------------------------------|
D|----------------------------------|----------------------------------|
A|----------------------------------|----------------------------------|
E|-6-7-7-7-7-7-7-7--6-7-7-7-7-7-7-7-|-6-7-7-7-7-7-7-7--7---------------|


                                   (O)
G|----------------------------------|----------------------------------|		 
D|----------------------------------|----------------------------------|
A|----------------5-----------5-----|----------5-----------------------|
E|--------3---3-------3---3---------|--3---3-------3-------------------|


                                   (P)
G|----------------------------------|----------------------------------|
D|--------------7---7--6------------|--------------7---7--6------------|
A|------7---5-----------------------|------7---5-----------------------|
E|--0-------------------------------|--0-------------------------------|


                                   (Q)
G|----------------------------------|----------------------------------|
D|--------------7---7--6------------|--------------7---7--6------------|
A|------7---5-----------------------|------7---5-----------------------|
E|--0-------------------------------|--0-------------------------------|


                                   (R)
G|----------------------------------|----------------------------------|		 
D|----------------------------------|----------------------------------|
A|----------------------------------|----------------------------------|
E|--------5---5---3----5---5---0----|---5---5---3----5---5---0---------|


                                   (S)
G|----------------------------------|----------------------------------|		 
D|----------------------------------|----------------------------------|
A|----------------5-----------5-----|----------5-----------5-----------|
E|--------3---3-------3---3---------|--3---3-------3---3---------------|


                                   (T)
G|----------------------------------|----------------------------------|
D|--------------7---7--6------------|--------------7---7--6------------|
A|------7---5-----------------------|------7---5-----------------------|
E|--0-------------------------------|--0-------------------------------|

                                   (U)
G|----------------------------------|----------------------------------|
D|--------------7---7--6------------|--------------7---7--6------------|
A|------7---5-----------------------|------7---5-----------------------|
E|--0-------------------------------|--0-------------------------------|


                                   (V)
G|----------------------------------|----------------------------------|
D|--------------7---7--6------------|----------------------------------|
A|------7---5-----------------------|----------------------------------|
E|--0-------------------------------|-5--5-3---5--5-0---5--5-3---5--5-0-|


                                   (W)
G|----------------------------------|----------------------------------|
D|--------------7---7--6------------|--------------7---7--6------------|
A|------7---5-----------------------|------7---5-----------------------|
E|--0-------------------------------|--0-------------------------------|


                                   (X)
G|----------------------------------|----------------------------------|
D|----------------------------------|----------------------------------|
A|--4---4-------4---4-------4-------|----------5-----------5-----------|
E|----------4------------4----------|--3---3-------3---3-------3-------|


                                   (Y)
G|----------------------------------|----------------------------------|
D|----------------------------------|----------------------------------|
A|--7---7-------7---7-------7-------|--4---4-------4---4-------4-------|
E|----------7-----------7-----------|----------4------------4----------|


                                   (Z)
G|----------------------------------|----------------------------------|
D|----------------------------------|----------------------------------|
A|--3---3-------3---3-------3-------|----------5-----------5-----------|
E|----------3-----------3-----------|--3---3-------3---3-------3-------|
			

                                   (AA)
G|----------------------------------|----------------------------------|
D|----------------------------------|----------------------------------|
A|----------------------------------|----------------------------------|
E|-6-7-7-7-7-7-7-7--6-7-7-7-7-7-7-7-|-6-7-7-7-7-7-7-7--7---------------|



                                   (AB)
G|----------------------------------|----------------------------------|		 
D|----------------------------------|----------------------------------|
A|----------------5-----------5-----|----------5-----------------------|
E|--------3---3-------3---3---------|--3---3-------3-------------------|


                                   (AC)
G|----------------------------------|----------------------------------|
D|--------------7---7--6------------|--------------7---7--6------------|
A|------7---5-----------------------|------7---5-----------------------|
E|--0-------------------------------|--0-------------------------------|


                                   (AD)
G|----------------------------------|----------------------------------|		 
D|----------------------------------|----------------------------------|
A|----------------5-----------5-----|----------5-----------------------|
E|--------3---3-------3---3---------|--3---3-------3-------------------|


                                   (AE)
G|----------------------------------|----------------------------------|
D|--------------7---7--6------------|--------------7---7--6------------|
A|------7---5-----------------------|------7---5-----------------------|
E|--0-------------------------------|--0-------------------------------|


                                   (AF)
G|----------------------------------|----------------------------------|
D|----------------------------------|----------------------------------|
A|----------------5---5-------------|--4---4--4--------2---2--2--------|
E|--0---0---3--------------5--------|----------------------------------|

 Repeat AF Until The Song Fades Out 

Back To Contents

Back To Main Stranglers Index