Choosey Susie




 SONG: CHOOSEY SUSIE 
 ARTISIT: THE STRANGLERS 
 ALBUM: RARITES
 BASSIST : JEAN JACQUES BURNEL
 TAB BY CHRIS@LOOPY0.DEMON.CO.UK

 
                                   (A)
G|----------------------------------|----------------------------------|
D|----------------------------------|----------------------------------|
A|------------------5-5-5-5---------|------------------5-5-5-5---------|
E|-5-5-5-5--3-3-3-3---------5-5-3-3-|-5-5-5-5--3-3-3-3---------5-5-3-3-|
	

                                   (B)
G|----------------------------------|----------------------------------|
D|----------------------------------|----------------------------------|
A|------------------5-5-5-5---------|------------------5-5-5-5---------|
E|-5-5-5-5--3-3-3-3---------5-5-3-3-|-5-5-5-5--3-3-3-3---------5-5-3-3-|


                                   (C)
G|----------------------------------|----------------------------------|
D|----------------------------------|----------------------------------|
A|------------------5-5-5-5---------|------------------5-5-5-5---------|
E|-5-5-5-5--3-3-3-3---------5-5-3-3-|-5-5-5-5--3-3-3-3---------5-5-3-3-|


                                   (D)
G|----------------------------------|----------------------------------|
D|----------------------------------|----------------------------------|
A|------------------5-5-5-5---------|------------------5-5-5-5---------|
E|-5-5-5-5--3-3-3-3---------5-5-3-3-|-5-5-5-5--3-3-3-3---------5-5-3-3-|


                                   (E)
G|----------------------------------|----------------------------------|
D|--3-3-3-3-2-2-2-2-----------------|----------------------------------|
A|------------------5-5-5-5-3-3-3-3-|-1-1-1-1--0-0-0-0-----------------|
E|----------------------------------|--------------------3-3-3-3-------|


                                   (F)
G|----------------------------------|----------------------------------|
D|----------------------------------|----------------------------------|
A|----------------------------------|----------------------------------|
E|------5--3--5--3--5--3--5--3------|------5--3--5--3--5--3--5--3------|


                                   (G)
G|----------------------------------|----------------------------------|
D|----------------------------------|----------------------------------|
A|------------------5-5-5-5---------|------------------5-5-5-5---------|
E|-5-5-5-5--3-3-3-3---------5-5-3-3-|-5-5-5-5--3-3-3-3---------5-5-3-3-|


                                   (H)
G|----------------------------------|----------------------------------|
D|----------------------------------|----------------------------------|
A|------------------5-5-5-5---------|------------------5-5-5-5---------|
E|-5-5-5-5--3-3-3-3---------5-5-3-3-|-5-5-5-5--3-3-3-3---------5-5-3-3-|


                                   (I)
G|----------------------------------|----------------------------------|
D|----------------------------------|----------------------------------|
A|------------------5-5-5-5---------|------------------5-5-5-5---------|
E|-5-5-5-5--3-3-3-3---------5-5-3-3-|-5-5-5-5--3-3-3-3---------5-5-3-3-|


                                   (J)
G|----------------------------------|----------------------------------|
D|----------------------------------|----------------------------------|
A|------------------5-5-5-5---------|------------------5-5-5-5---------|
E|-5-5-5-5--3-3-3-3---------5-5-3-3-|-5-5-5-5--3-3-3-3---------5-5-3-3-|


                                   (K)
G|----------------------------------|----------------------------------|
D|--3-3-3-3-2-2-2-2-----------------|----------------------------------|
A|------------------5-5-5-5-3-3-3-3-|-1-1-1-1--0-0-0-0-----------------|
E|----------------------------------|--------------------3-3-3-3-------|


                                   (L)
G|----------------------------------|----------------------------------|
D|----------------------------------|----------------------------------|
A|----------------------------------|----------------------------------|
E|------5--3--5--3--5--3--5--3------|------5--3--5--3--5--3--5--3------|


                                   (M)
G|----------------------------------|----------------------------------|
D|----------------------------------|----------------------------------|
A|------------------5-5-5-5---------|------------------5-5-5-5---------|
E|-5-5-5-5--3-3-3-3---------5-5-3-3-|-5-5-5-5--3-3-3-3---------5-5-3-3-|


                                   (N)
G|----------------------------------|----------------------------------|
D|----------------------------------|----------------------------------|
A|------------------5-5-5-5---------|------------------5-5-5-5---------|
E|-5-5-5-5--3-3-3-3---------5-5-3-3-|-5-5-5-5--3-3-3-3---------5-5-3-3-|


                                   (O)
G|----------------------------------|
D|----------------------------------|
A|----------------------------------|
E|-1-1-1-1-1-1-1-1-1-1-1-1--0-0-----|


                                   (P)
G|----------------------------------|----------------------------------|
D|----------------------------------|----------------------------------|
A|------------------5-5-5-5---------|------------------5-5-5-5---------|
E|-5-5-5-5--3-3-3-3---------5-5-3-3-|-5-5-5-5--3-3-3-3---------5-5-3-3-|


                                   (Q)
G|----------------------------------|----------------------------------|
D|----------------------------------|----------------------------------|
A|------------------5-5-5-5---------|------------------5-5-5-5---------|
E|-5-5-5-5--3-3-3-3---------5-5-3-3-|-5-5-5-5--3-3-3-3---------5-5-3-3-|


                                   (R)
G|----------------------------------|---------------------------------|
D|----------------------------------|---------------------------------|
A|----------------------------------|---------5--------------------5--|
E|--1-1-1-1-1-1-1-1-1-1-1-1-1-1-1-1-|--1---0-----3-1-3-1-3--1---0-----|


                                   (S)
G|----------------------------------|----------------------------------|
D|----------------------------------|----------------------------------|
A|------------------5-5-5-5---------|------------------5-5-5-5---------|
E|-5-5-5-5--3-3-3-3---------5-5-3-3-|-5-5-5-5--3-3-3-3---------5-5-3-3-|


                                   (T)
G|----------------------------------|----------------------------------|
D|----------------------------------|----------------------------------|
A|------------------5-5-5-5---------|------------------5-5-5-5---------|
E|-5-5-5-5--3-3-3-3---------5-5-3-3-|-5-5-5-5--3-3-3-3---------5-5-3-3-|


                                   (U)
G|----------------------------------|----------------------------------|
D|----------------------------------|----------------------------------|
A|------------------5-5-5-5---------|------------------5-5-5-5---------|
E|-5-5-5-5--3-3-3-3---------5-5-3-3-|-5-5-5-5--3-3-3-3---------5-5-3-3-|


                                   (V)
G|----------------------------------|----------------------------------|
D|----------------------------------|----------------------------------|
A|------------------5-5-5-5---------|------------------5-5-5-5---------|
E|-5-5-5-5--3-3-3-3---------5-5-3-3-|-5-5-5-5--3-3-3-3---------5-5-3-3-|


                                   (W)
G|----------------------------------|----------------------------------|
D|--3-3-3-3-2-2-2-2-----------------|----------------------------------|
A|------------------5-5-5-5-3-3-3-3-|-1-1-1-1--0-0-0-0-----------------|
E|----------------------------------|--------------------3-3-3-3-------|


                                   (X)
G|----------------------------------|----------------------------------|
D|----------------------------------|----------------------------------|
A|----------------------------------|----------------------------------|
E|------5--3--5--3--5--3--5--3------|------5--3--5--3--5--3--5--3------|


                                   (Y)
G|----------------------------------|----------------------------------|
D|----------------------------------|----------------------------------|
A|------------------5-5-5-5---------|------------------5-5-5-5---------|
E|-5-5-5-5--3-3-3-3---------5-5-3-3-|-5-5-5-5--3-3-3-3---------5-5-3-3-|


                                   (Z)
G|----------------------------------|----------------------------------|
D|----------------------------------|----------------------------------|
A|------------------5-5-5-5---------|------------------5-5-5-5---------|
E|-5-5-5-5--3-3-3-3---------5-5-3-3-|-5-5-5-5--3-3-3-3---------5-5-3-3-|


                                   (AA)
G|-------------------5-8-7-5--------|---5-7-9-12-14-17-15-14-17-15-14--|
D|-7-7-7-7-7-7-7-7-7---------7-5-7--|-7--------------------------------|
A|----------------------------------|----------------------------------|
E|----------------------------------|----------------------------------|


                                   (AB)
G|-12----12-------------------------|----------------------------------|
D|----14----14---7-5---7-5---7-5----|--7-5---7-5---7-5-----7-----------|
A|-------------------4-----4-----4--|------4-----4-----4---------------|
E|----------------------------------|----------------------------------|

                                     





Back To Contents

Back To Main Stranglers Index