Cruel Garden



 SONG: CRUEL GARDEN
 ARTIST: THE STRANGLERS
 ALBUM: HITS COLLECTION
 BASSIST: JEAN JACQUES BURNEL
 TAB BY CHRIS@LOOPY0.DEMON.CO.UK

 
                                   (A)
G|----------------------------------|----------------------------------|
D|----------------------------------|----------------------------------|
A|--0--------------0----------------|--------0-----2R------------------|
E|------3-----1R----------3-----1R--|--3-------------------------------|


                                   (B)
G|----------------------------------|----------------------------------|
D|----------------------------------|----------------------------------|
A|--0-------------0-----------------|--0-------------0-----------------|
E|-----3--1--0-------3--1--0--------|-----3--1--0-------3--1--0--------|


                                   (C)
G|----------------------------------|----------------------------------|
D|----------------------------------|----------------------------------|
A|--0-------------0-----------------|--0-------------0-----------------|
E|-----3--1--0-------3--1--0--------|-----3--1--0-------3--1--0--------|


                                   (D)
G|----------------------------------|----------------------------------|
D|----------------------------------|----------------------------------|
A|--0-----------------0--2--3-------|--0-------------0-----------------|
E|-----3--1--0-----3----------------|-----3--1--0-------3--1--0--------|


                                   (E)
G|----------------------------------|----------------------------------|
D|----------------------------------|----------------------------------|
A|--0-----------------0--2--3-------|--0-------------0-----------------|
E|-----3--1--0-----3----------------|-----3--1--0-------3--1--0--------|


                                   (F)
G|----------------------------------|----------------------------------|
D|----------------------------------|----------------------------------|
A|--0-----------------0--2--3-------|--0-------------0-----------------|
E|-----3--1--0-----3----------------|-----3--1--0-------3--1--0--------|


                                   (G)
G|----------------------------------|----------------------------------|
D|----------------------------------|----------------------------------|
A|--0-----------------0--2--3-------|--0-------------0-----------------|
E|-----3--1--0-----3----------------|-----3--1--0-------3--1--0--------|


                                   (H)
G|----------------------------------|----------------------------------|
D|----------------------------------|----------------------------------|
A|--0-----------------0--2--3-------|--0-------------0-----------------|
E|-----3--1--0-----3----------------|-----3--1--0-------3--1--0--------|


                                   (I)
G|----------------------------------|----------------------------------|
D|----------------------------------|----------------------------------|
A|--0-----------------0--2--3-------|--0-------------0-----------------|
E|-----3--1--0-----3----------------|-----3--1--0-------3--1--0--------|


                                   (J)
G|----------------------------------|----------------------------------|
D|----------------------------------|----------------------------------|
A|--0-----------------0--2--3-------|--0-------------0-----------------|
E|-----3--1--0-----3----------------|-----3--1--0-------3--1--0--------|


                                   (K)
G|----------------------------------|----------------------------------|
D|----------------------------------|----------------------------------|
A|--0-----------------0--2--3-------|--0-------------0-----------------|
E|-----3--1--0-----3----------------|-----3--1--0-------3--1--0--------|


                                   (L)
G|----------------------------------|----------------------------------|
D|----------------------------------|----------------------------------|
A|--0-----------------0--2--3-------|--0-------------0-----------------|
E|-----3--1--0-----3----------------|-----3--1--0-------3--1--0--------|


                                   (M)
G|----------------------------------|----------------------------------|
D|----------------------------------|----------------------------------|
A|--0-----------------0--2--3-------|--0-------------0-----------------|
E|-----3--1--0-----3----------------|-----3--1--0-------3--1--0--------|
			

                                   (N)
G|----------------------------------|----------------------------------|
D|----------------------------------|----------------------------------|
A|--0-----------------0--2--3-------|--0-------------0-----------------|
E|-----3--1--0-----3----------------|-----3--1--0-------3--1--0--------|


                                   (O)
G|----------------------------------|----------------------------------|
D|----------------------------------|----------------------------------|
A|--0-----------------0--2--3-------|--1-1R----------------------------|
E|-----3--1--0-----3----------------|----------------------------------|


                                   (P)
G|----------------------------------|----------------------------------|
D|----------------------------------|----------------------------------|
A|--0-------------0-----------------|--0-------------0-----------------|
E|-----3--1--0-------3--1--0--------|-----3--1--0-------3--1--0--------|


                                   (Q)
G|----------------------------------|----------------------------------|
D|----------------------------------|----------------------------------|
A|--0-------------0-----------------|--0-------------0-----------------|
E|-----3--1--0-------3--1--0--------|-----3--1--0-------3--1--0--------|


                                   (R)
G|----------------------------------|----------------------------------|
D|----------------------------------|----------------------------------|
A|--0-------------0-----------------|-----0--2--3-------0--------------|
E|-----3--1--0-------3--1--0--------|--3--------------------3--1--0----|


                                   (S)
G|----------------------------------|----------------------------------|
D|----------------------------------|----------------------------------|
A|--0-------------0-----------------|-----0--2--3-------0--------------|
E|-----3--1--0-------3--1--0--------|--3--------------------3--1--0----|


                                   (T)
G|----------------------------------|----------------------------------|
D|----------------------------------|----------------------------------|
A|--0-------------0-----------------|-----0--2--3-------0--------------|
E|-----3--1--0-------3--1--0--------|--3--------------------3--1--0----|


                                   (U)
G|----------------------------------|----------------------------------|
D|----------------------------------|----------------------------------|
A|--0-------------0-----------------|-----0--2--3-------1-1R-----------|
E|-----3--1--0-------3--1--0--------|--3-------------------------------|


                                   (V)
G|----------------------------------|----------------------------------|
D|----------------------------------|----------------------------------|
A|--0-------------0-----------------|-----0--2--3-------0--------------|
E|-----3--1--0-------3--1--0--------|--3--------------------3--1--0----|


                                   (W)
G|----------------------------------|----------------------------------|
D|----------------------------------|----------------------------------|
A|--0-------------0-----------------|-----0--2--3-------0--------------|
E|-----3--1--0-------3--1--0--------|--3--------------------3--1--0----|


                                   (X)
G|----------------------------------|----------------------------------|
D|----------------------------------|----------------------------------|
A|--0-------------0-----------------|--0-------------0-----------------|
E|-----3--1--0-------3--1--0--------|-----3--1--0-------3--1--0--------|


                                   (Y)
G|----------------------------------|----------------------------------|
D|----------------------------------|----------------------------------|
A|--0-------------0-----------------|-----0--2--3-------0--------------|
E|-----3--1--0-------3--1--0--------|--3--------------------3--1--0----|


                                   (Z)
G|----------------------------------|----------------------------------|
D|----------------------------------|----------------------------------|
A|-----0--2--3-------0--------------|-----0--2--3-------0--------------|
E|--3--------------------3--1--0----|--3--------------------3--1--0----|

 Repeat Until The Song Fades Out


Back To Contents

Back To Main Stranglers Index