All Live And All Of The Night All Live And All Of The Night

All Day And All Of The Night



 
 SONG: ALL DAY AND ALL OF THE NIGHT
 
 ARTIST: THE STRANGLERS
 ALBUM: ALL LIVE AND ALL OF THE NIGHT
 BASSIST: JEAN JACQUES BURNEL
 TAB BY CHRIS@LOOPY0.DEMON.CO.UK


 R=REST

 
                                   (A)
G|----------------------------------|----------------------------------|
D|----------------------------------|----------------------------------|
A|--------------------1--1--1-------|-----------------------1--1--1----|
E|--1---3--3---1--1-------------3---|--1--3--1--3--3---1--1----------3-|
			

                                   (B)
G|----------------------------------|----------------------------------|
D|----------------------------------|----------------------------------|
A|-----------------------1--1--1----|-----------------------1--1--1----|
E|--1--3--1--3--3---1--1----------3-|--1--3--1--3--3---1--1----------3-|


                                   (C)
G|----------------------------------|----------------------------------|
D|----------------------------------|----------------------------------|
A|-----------------------1--1--1----|-------------1--1-1---------------|
E|--1--3--1--3--3---1--1----------3-|-3--3--3------------------1--1-1--|


                                   (D)CHORUS
G|----------------------------------|----------------------------------|
D|----------------------------------|------------------3--3--3---------|
A|--------------3--3--3-----------3-|--5---5--3---3---------------5----|
E|-5---5--3---3-----------5--3--5---|----------------------------------|


                                   (E)
G|----------------------------------|----------------------------------|
D|-----------------------3--3--3----|-----------------------3--3--3----|
A|--3--5--3--5--5---3--3----------5-|--3--5--3--5--5---3--3----------5-|
E|----------------------------------|----------------------------------|


                                   (F)
G|----------------------------------|----------------------------------|
D|-----------------------3--3--3----|----------------------------------|
A|--3--5--3--5--5---3--3----------5-|-----------------------1--1--1----|
E|----------------------------------|--1--3--1--3--3---1--1----------3-|



                                   (G)
G|----------------------------------|----------------------------------|
D|----------------------------------|----------------------------------|
A|-----------------------1--1--1----|-----------------------1--1--1----|
E|--1--3--1--3--3---1--1----------3-|--1--3--1--3--3---1--1----------3-|



                                   (H)
G|----------------------------------|----------------------------------|
D|----------------------------------|----------------------------------|
A|-----------------------1--1--1----|-------------1--1-1---------------|
E|--1--3--1--3--3---1--1----------3-|-3--3--3------------------1--1-1--|



                                   (I)CHORUS
G|----------------------------------|----------------------------------|
D|----------------------------------|------------------3--3--3---------|
A|--------------3--3--3-----------3-|--5---5--3---3---------------5----|
E|-5---5--3---3-----------5--3--5---|----------------------------------|



                                   (J)
G|----------------------------------|----------------------------------|
D|-----------------------3--3--3----|-----------------------3--3--3----|
A|--3--5--3--5--5---3--3----------5-|--3--5--3--5--5---3--3----------5-|
E|----------------------------------|----------------------------------|



                                   (K)SOLO
G|----------------------------------|----------------------------------|
D|---------------3-R----------------|----------------------------------|
A|-5------3---------------5-R-------|--------------------1--1--1-------|
E|----------------------------------|--1---3--3---1--1-------------3---|


                                   (L)
G|----------------------------------|----------------------------------|
D|----------------------------------|----------------------------------|
A|-----------------------1--1--1----|-----------------------1--1--1----|
E|--1--3--1--3--3---1--1----------3-|--1--3--1--3--3---1--1----------3-|



                                   (M)
G|----------------------------------|----------------------------------|
D|----------------------------------|----------------------------------|
A|-----------------------1--1--1----|-----------------------1--1--1----|
E|--1--3--1--3--3---1--1----------3-|--1--3--1--3--3---1--1----------3-|
			

                                   (N)
G|----------------------------------|----------------------------------|
D|----------------------------------|----------------------------------|
A|-----------------------1--1--1----|-----------------------1--1--1----|
E|--1--3--1--3--3---1--1----------3-|--1--3--1--3--3---1--1----------3-|


                                   (O)
G|----------------------------------|----------------------------------|
D|----------------------------------|----------------------------------|
A|-----------------------1--1--1----|-----------------------1--1--1----|
E|--1--3--1--3--3---1--1----------3-|--1--3--1--3--3---1--1----------3-|


                                   (P)
G|----------------------------------|----------------------------------|
D|----------------------------------|----------------------------------|
A|--------------1--1-1--------------|--------------3--3--3-----------3-|
E|--3--3--3-----------------1--1-1--|-5---5--3---3-----------5--3--5---|


 CHORUS                            (Q)
G|----------------------------------|----------------------------------|
D|------------------3--3--3---------|-----------------------3--3--3----|
A|--5---5--3---3---------------5----|--3--5--3--5--5---3--3----------5-|
E|----------------------------------|----------------------------------|


                                   (R)
G|----------------------------------|----------------------------------|
D|-----------------------3--3--3----|-----------------------3--3--3----|
A|--3--5--3--5--5---3--3----------5-|--3--5--3--5--5---3--3----------5-|
E|----------------------------------|----------------------------------|



                                   (S)
G|----------------------------------|
D|---------------3------------------|
A|--5------3--------------5---------|
E|----------------------------------|


Back To Contents

Back To Main Stranglers Index