No More Heroes No More Heroes

Dead Ringer




DEAD RINGER
ARTIST: THE STRANGLERS
ALBUM: NO MORE HEROES
BASSIST: JEAN JACQUES BURNEL
TAB BY CHRIS@LOOPY0.CO.UK


 S= SLIDE
 X= MUTED STRING
 
                                   (A)
G|----------------------------------|----------------------------------|
D|----------------------------------|----------------------------------|
A|----------------------------------|----------------------------------|
E|--0--0-0-0--3--X----0--6--6--5--3-|--0--0-0-0--3--X----0--6--6--5--3-|



                                   (B)
G|----------------------------------|----------------------------------|
D|----------------------------------|----------------------------------|
A|----------------------------------|----------------------------------|
E|--0--0-0-0--3--X----0--6--6--5--3-|--0--0-0-0--3--X----0--6--6--5--3-|



                                   (C)
G|----------------------------------|----------------------------------|
D|----------------------------------|----------------------------------|
A|----------------------------------|----------------------------------|
E|--0--0-0-0--3--X----0--6--6--5--3-|--0--0-0-0--3--X----0--6--6--5--5-|



 VERSE 1                           (D)
G|----------------------------------|----------------------------------|
D|----------------------------------|----------------------------------|
A|----------------------------------|----------------------------------|
E|--0--0-0-0--3--X----0--6--6--5--3-|--0--0-0-0--3--X----0--6--6--5--3-|



                                   (E)
G|----------------------------------|----------------------------------|
D|----------------------------------|----------------------------------|
A|----------------------------------|----------------------------------|
E|--0--0-0-0--3--X----O--6--6--5--3-|--0--0-0-0--3--X----0--6--6--5--3-|



 CHORUS                            (F)
G|----------------------------------|----------------------------------|
D|----------------------------------|----------------------------------|
A|-2----------------2---------------|-2----------------2---------------|
E|---3--0--5--3--0----3--0--5--3--0-|---3--0--5--3--0----3--0-6-6-6-6-5-3-|


                                   
 VERSE 2                           (G)
G|----------------------------------|----------------------------------|
D|----------------------------------|----------------------------------|
A|----------------------------------|----------------------------------|
E|--0--0-0-0--3--X----0--6--6--5--3-|--0--0-0-0--3--X----0--6--6--5--3-|



                                   (H)
G|----------------------------------|----------------------------------|
D|----------------------------------|----------------------------------|
A|----------------------------------|----------------------------------|
E|--0--0-0-0--3--X----0--6--6--5--3-|--0--0-0-0--3--X----0--6--6--5--3-|



 CHORUS                            (I)
G|----------------------------------|----------------------------------|
D|----------------------------------|----------------------------------|
A|-2----------------2---------------|-2----------------2---------------|
E|---3--0--5--3--0----3--0--5--3--0-|---3--0--5--3--0----3--0-6-6-6-6-5-3-|



 GUITAR SOLO                       (J)
G|----------------------------------|----------------------------------|
D|----------------------------------|----------------------------------|
A|----------------------------------|----------------------------------|
E|--0--0-0-0--3--X----0--6--6--5--3-|--0--0-0-0--3--X----0--6--6--5--3-|



                                   (K)
G|----------------------------------|----------------------------------|
D|----------------------------------|----------------------------------|
A|----------------------------------|----------------------------------|
E|--0--0-0-0--3--X----0--6--6--5--3-|--0--0-0-0--3--X----0--6--6--5--3-|



 VERSE 3                           (L)
G|----------------------------------|----------------------------------|
D|----------------------------------|----------------------------------|
A|----------------------------------|----------------------------------|
E|--0--0-0-0--3--X----0--6--6--5--3-|--0--0-0-0--3--X----0--6--6--5--3-|



                                   (M)
G|----------------------------------|----------------------------------|
D|----------------------------------|----------------------------------|
A|----------------------------------|----------------------------------|
E|--0--0-0-0--3--X----0--6--6--5--3-|--0--0-0-0--3--X----0--6--6--5--3-|



 CHORUS                            (N)
G|----------------------------------|----------------------------------|
D|----------------------------------|----------------------------------|
A|-2----------------2---------------|-2----------------2---------------|
E|---3--0--5--3--0----3--0--5--3--0-|---3--0--5--3--0----3--0-6-6-6-6-5-3-|



 KEYBOARD SOLO                     (O)
G|----------------------------------|----------------------------------|
D|----------------------------------|----------------------------------|
A|----------------------------------|----------------------------------|
E|--0--0-0-0--3--X----0--6--6--5--3-|--0--0-0-0--3--X----0--6--6--5--3-|



                                   (P)
G|----------------------------------|----------------------------------|
D|----------------------------------|----------------------------------|
A|----------------------------------|----------------------------------|
E|--0--0-0-0--3--X----0--6--6--5--3-|--0--0-0-0--3--X----0--6--6--5--3-|



                                   (Q)
G|----------------------------------|----------------------------------|
D|----------------------------------|----------------------------------|
A|----------------------------------|----------------------------------|
E|--0--0-0-0--3--X----0--6--6--5--3-|--0--0-0-0--3--X----0--6--6--5--3-|



                                   (R)
G|----------------------------------|----------------------------------|
D|--------------------------5--7----|--------------------------5--7----|
A|--------------------5--7----------|--------------------5--7----------|
E|--0--0-0-0--3----7----------------|--0--0-0-0--3----7----------------|



                                   (S)
G|----------------------------------|----------------------------------|
D|--------------------------5--7----|--------------------------5--7----|
A|--------------------5--7----------|--------------------5--7----------|
E|--0--0-0-0--3----7----------------|--0--0-0-0--3----7----------------|



                                   (T)
G|----------------------------------|----------------------------------|
D|--------------------------5--7----|--------------------------5--7----|
A|--------------------5--7----------|--------------------5--7----------|
E|--0--0-0-0--3----7----------------|--0--0-0-0--3----7----------------|



                                   (U)
G|----------------------------------|----------------------------------|
D|----------------------------------|----------------------------------|
A|----------------------------------|----------------------------------|
E|--0-0-0-0-3-0--12S--0-0-0-0-3-0---|12S--0-0-0-0-3-0--12S--0-0-0-0-3-0|




                                   (V)
G|----------------------------------|----------------------------------|
D|----------------------------------|----------------------------------|
A|----------------------------------|----------------------------------|
E|12S--0-0-0-0-3-0--12S--0-0-0-0-3-0|----0-0-0-0-3-0----0-0-0-0-3-0----|



                                   (W)
G|----------------------------------|----------------------------------|
D|---5-5-5-5-4-5S-------------------|----------------------------------|
A|----------------------------------|----------------------------------|
E|--------------------0-0-0-0-3-0---|--12S----0-0-0-0-3-0----------0---|


Back To Contents

Back To Main Stranglers Index