Black And White Black And White

Do You Wanna
Death & Night & Blood



 DO YOU WANNA? DEATH AND NIGHT AND BLOOD
 ARTISI: THE STRANGLERS 
 ALBUM: BLACK AND WHITE 
 BASSIST : JEAN JACQUES BURNEL
 TAB BY CHRIS@LOOPY0.DEMON.CO.UK

 GUITAR INTRO
 
                                   (A)
G|----------------------------------|----------------0--------2--0-----|
D|------------------5-------4-------|-------------2-----2--3--------3--|
A|----3----------7-----7-6-----6-5--|----3-----------------------------|
E|-5-----5--3-----------------------|-5-----5--3-----------------------|
			

                                   (B)
G|----------------------------------|----------------0--------2--0-----|
D|------------------5-------4-------|-------------2-----2--3--------3--|
A|----3----------7-----7-6-----6-5--|----3-----------------------------|
E|-5-----5--3-----------------------|-5-----5--3-----------------------|


                                   (C)
G|----------------0--------2--0-----|
D|-------------2-----2--3--------3--|
A|----3-----------------------------|
E|-5-----5--3-----------------------|


 VERSE                             (D)
G|----------------------------------|----------------------------------|
D|-2-----2--1--0--------------------|-2-----2--1--0--------------------|
A|----2--------------3--5--3--------|----2--------------3--5--3--------|
E|----------------------------5--3--|----------------------------5--3--|


                                   (E)
G|----------------------------------|----------------------------------|
D|-2-----2--1--0--------------------|-2-----2--1--0--------------------|
A|----2--------------3--5--3--------|----2--------------3--5--3--------|
E|----------------------------5--3--|----------------------------5--3--|


                                   (F)
G|----------------------------------|----------------0--------2--0-----|
D|------------------5-------4-------|-------------2-----2--3--------3--|
A|----3----------7-----7-6-----6-5--|----3-----------------------------|
E|-5-----5--3-----------------------|-5-----5--3-----------------------|


                                   (G)
G|----------------------------------|----------------0--------2--0-----|
D|------------------5-------4-------|-------------2-----2--3--------3--|
A|----3----------7-----7-6-----6-5--|----3-----------------------------|
E|-5-----5--3-----------------------|-5-----5--3-----------------------|


                                   (H)
G|----------------------------------|----------------------------------|
D|-2-----2--1--0--------------------|-2-----2--1--0--------------------|
A|----2--------------3--5--3--------|----2--------------3--5--3--------|
E|----------------------------5--3--|----------------------------5--3--|


                                   (I)
G|----------------------------------|----------------------------------|
D|-2-----2--1--0--------------------|-2-----2--1--0--------------------|
A|----2--------------3--5--3--------|----2--------------3--5--3--------|
E|----------------------------5--3--|----------------------------5--3--|


                                   (J)
G|----------------------------------|----------------0--------2--0-----|
D|------------------5-------4-------|-------------2-----2--3--------3--|
A|----3----------7-----7-6-----6-5--|----3-----------------------------|
E|-5-----5--3-----------------------|-5-----5--3-----------------------|


                                   (K)
G|----------------------------------|----------------0--------2--0-----|
D|------------------5-------4-------|-------------2-----2--3--------3--|
A|----3----------7-----7-6-----6-5--|----3-----------------------------|
E|-5-----5--3-----------------------|-5-----5--3-----------------------|


                                   (L)
G|-------5--------------------8-10--|-------5--------------------8-10--|
D|----7-------------8-10---10-------|----7-------------8-10---10-------|
A|-5-------------10------8----------|-5-------------10------8----------|
E|----------------------------------|----------------------------------|


                                   (M)
G|-------5--------------------8-10--|-------5---------3-3-3-3-2-3-2-0--|
D|----7-------------8-10---10-------|----7-----------------------------|
A|-5-------------10------8----------|-5--------------------------------|
E|----------------------------------|----------------------------------|


                                   (N)
G|----------------------------------|----------------0--------2--0-----|
D|------------------5-------4-------|-------------2-----2--3--------3--|
A|----3----------7-----7-6-----6-5--|----3-----------------------------|
E|-5-----5--3-----------------------|-5-----5--3-----------------------|


                                   (O)
G|----------------------------------|----------------0--------2--0-----|
D|------------------5-------4-------|-------------2-----2--3--------3--|
A|----3----------7-----7-6-----6-5--|----3-----------------------------|
E|-5-----5--3-----------------------|-5-----5--3-----------------------|


                                   (P)
G|----------------------------------|----------------------------------|
D|-2-----2--1--0--------------------|-2-----2--1--0--------------------|
A|----2--------------3--5--3--------|----2--------------3--5--3--------|
E|----------------------------5--3--|----------------------------5--3--|

 
                                   (Q)
G|----------------------------------|----------------------------------|
D|-2-----2--1--0--------------------|-2-----2--1--0--------------------|
A|----2--------------3--5--3--------|----2--------------3--5--3--------|
E|----------------------------5--3--|----------------------------5--3--|


                                   (R)
G|----------------------------------|----------------0--------2--0-----|
D|------------------5-------4-------|-------------2-----2--3--------3--|
A|----3----------7-----7-6-----6-5--|----3-----------------------------|
E|-5-----5--3-----------------------|-5-----5--3-----------------------|


                                   (S)
G|----------------------------------|----------------0--------2--0-----|
D|------------------5-------4-------|-------------2-----2--3--------3--|
A|----3----------7-----7-6-----6-5--|----3-----------------------------|
E|-5-----5--3-----------------------|-5-----5--3-----------------------|


                                   (T)
G|----------------------------------|----------------------------------|
D|----------------------------------|----------------------------------|
A|----------------------------------|----------------------------------|
E|-5--3--5--3--5--3---5--3--0--5--3-|-5--3--5--3--5--3---5--3--0--5--3-|


 DEATH AND NIGHT AND BLOOD
 
 R= REST 

 S= SLIDE       
                                   (A)
G|----------------------------------|----------------------------------|
D|--5--5--5--0-R---------5--0--3S---|--0--2--0-------------------------|
A|----------------------------------|-----------3--2-------------------|
E|----------------------------------|----------------------------------|


                                   (B)
G|----------------------------------|----------------------------------|
D|-5--5--5--0-R----5--0--3--2-0-----|----------------------------------|
A|-----------------------------3-2-0|----------------------------------|
E|----------------------------------|-3-0-5-5-5-0-3-3-3-0-5-5-5-0-3-3-3|


                                   (C)
G|----------------------------------|----------------------------------|
D|----------------------------------|----------------------------------|
A|---------0-3-3-3------------------|---------0-3-3-3------------------|
E|-0-5-5-5---------0-3-3-3--0-1-1-1-|-0-5-5-5---------0-5-5-5--0-3-3-3-|


                                   (D) VERSE
G|--------------------------------|||----------------------------------|
D|--------------------------------|||----------------------------------|
A|--------------------------------|||---------0-3-3-3------------------|
E|-0-5-5-5--0-3-3-3---------------|||-0-5-5-5---------0-3-3-3--0-1-1-1-|


                                   (E)
G|----------------------------------|----------------------------------|
D|----------------------------------|----------------------------------|
A|----------------------------------|----------------------------------|
E|-0-0-0-0-1-0-1-0--5-5-5--0-3-3-3--|-0-5-5-5--0-3-3-3-----------------|


                                   (F)
G|----------------------------------|----------------------------------|
D|----------------------------------|----------------------------------|
A|---------0-3-3-3------------------|----------------------------------|
E|-0-5-5-5---------0-3-3-3--0-1-1-1-|-0-0-0-0-1-0-1-0--5-5-5--0-3-3-3--|


                                   (G)
G|----------------------------------|----------------------------------|
D|----------------------------------|----------------------------------|
A|----------------------------------|---------0-3-3-3------------------|
E|-0-5-5-5--0-3-3-3-----------------|-0-5-5-5---------0-3-3-3--0-1-1-1-|


                                   (H)
G|----------------------------------|----------------------------------|
D|----------------------------------|----------------------------------|
A|----------------------------------|----------------------------------|
E|-0-0-0-0-1-0-1-0--5-5-5--0-3-3-3--|-0-5-5-5--0-3-3-3-----------------|


                                   (I)
G|----------------------------------|----------------------------------|
D|----------------------------------|----------------------------------|
A|------------------0-0-2-2-3-3-3-3-|------------------0-0-2-2-3-3-3-3-|
E|-0-3-3-1-1-0-0-0-0----------------|-0-3-3-1-1-0-0-0-0----------------|


                                   (J)
G|----------------------------------|----------------------------------|
D|----------------------------------|----------------------------------|
A|-0-5-5-5--0-2-2-2-----------------|----------------------------------|
E|-----------------0-5-5-5--0-3-3-3-|-0-5-5-5--0-3-3-3-----------------|

 REPEAT VERSE

 REPEAT I,J

 REPEAT F,G,H
 
 REPEAT I,J
      
                                   (K)
G|----------------------------------|----------------------------------|
D|----------------------------------|----------------------------------|
A|-5-5-3-3-2-2-0-0--5-5-3-3-2-2-0-0-|-5-5-3-3-2-2-0-0------------------|
E|----------------------------------|-----------------0-5-5-5--0-3-3-3-|


                                   (L)
G|----------------------------------|
D|----------------------------------|
A|----------------------------------|
E|-0-5-5-5--0-3-3-3-----------------|


REPEAT K AND L TWICE		



Back To Contents

Back To Main Stranglers Index