Feline Feline

The European Female



 SONG:THE EUROPEAN FEMALE
 ARTIST: THE STRANGLERS
 ALBUM: FELINE
 BASSIST: JEAN JACQUES BURNEL
 TAB BY CHRIS@LOOPY0.DEMON.CO.UK

 
                                   (A)
G|----------------------------------|----------------------------------|
D|----------------------------------|----------------------------------|
A|----------------------------------|-----------3--3-------------------|
E|-1--1---0--1--1----0--0---0--1--0-|--1--1--1--------0--0--0--1--0----|
			

                                   (B)
G|----------------------------------|----------------------------------|
D|----------------------------------|----------------------------------|
A|-----------3--3-------------------|-----------3--3-------------------|
E|--1--1--1--------0--0--0--1--0----|--1--1--1--------0--0--0--1--0----|


                                   (C)
G|----------------------------------|----------------------------------|
D|----------------------------------|----------------------------------|
A|-----------3--3-------------------|-----------3--3-------------------|
E|--1--1--1--------0--0--0--1--0----|--1--1--1--------0--0--0--1--0----|


                                   (D)
G|----------------------------------|----------------------------------|
D|----------------------------------|----------------------------------|
A|-----------3--3-------------------|-----------3--3-------------------|
E|--1--1--1--------0--0--0--1--0----|--1--1--1--------0--0--0--1--0----|


                                   (E)
G|----------------------------------|----------------------------------|
D|----------------------------------|----------------------------------|
A|-----------3--3-------------------|-----------3--3-------------------|
E|--1--1--1--------0--0--0--1--0----|--1--1--1--------0--0--0--1--0----|


                                   (F)
G|----------------------------------|----------------------------7-----|
D|----------5-----------------7-----|----------9--------5-5-5-5-----5--|
A|-3-3-3-3-----3-----5-5-5-5-----5--|-7-7-7-7-----7--------------------|
E|----------------------------------|----------------------------------|


                                   (G)
G|----------------------------------|----------------------------------|
D|----------------------------------|----------------------------------|
A|-----7-7-----7-7------7-7------7-7|-----7-7-----7-7------7-7------7-7|
E|-0-0-----0-0------0-0------0-0----|-0-0-----0-0------0-0------0-0----|


                                   (H)
G|----------------------------------|----------------------------------|
D|----------------------------------|----------------------------------|
A|-----------3--3-------------------|-----------3--3-------------------|
E|--1--1--1--------0--0--0--1--0----|--1--1--1--------0--0--0--1--0----|


                                   (I)
G|----------------------------------|----------------------------------|
D|----------------------------------|----------------------------------|
A|-----------3--3-------------------|-----------3--3-------------------|
E|--1--1--1--------0--0--0--1--0----|--1--1--1--------0--0--0--1--0----|


                                   (J)
G|----------------------------------|----------------------------7-----|
D|----------5-----------------7-----|----------9--------5-5-5-5-----5--|
A|-3-3-3-3-----3-----5-5-5-5-----5--|-7-7-7-7-----7--------------------|
E|----------------------------------|----------------------------------|


                                   (K)
G|----------------------------------|----------------------------------|
D|----------------------------------|----------------------------------|
A|-----7-7-----7-7------7-7------7-7|-----7-7-----7-7------7-7------7-7|
E|-0-0-----0-0------0-0------0-0----|-0-0-----0-0------0-0------0-0----|


 CHORUS                            (L)
G|----------------------------------|----------------------------------|
D|----------------------------------|----------------------------------|
A|----------------------------------|----------------------------------|
E|-1---1-1---1-1---3---5---5---5-5-3|---5---5--5-5-3---5---5---5-5-0---|


                                   (M)
G|----------------------------------|----------------------------------|
D|----------------------------------|----------------------------------|
A|----------------------------------|----------------------------------|
E|-1---1-1---1-1---3---5---5---5-5-3|---5---5--5-5-3---5---5---5-5-0---|


                                   (N)
G|----------------------------------|----------------------------------|
D|----------------------------------|----------------------------------|
A|----------------------------------|----------------------------------|
E|-1---1-1---1-1---3---5---5---5-5-3|---5---5--5-5-3---5---5---5-5-0---|


                                   (O)
G|----------------------------------|
D|----------------------------------|
A|----------------------------------|
E|-3--3---3-3-3-----3--3---3-3-3----|


                                   (P)
G|----------------------------------|----------------------------------|
D|----------------------------------|----------------------------------|
A|-----------3--3-------------------|-----------3--3-------------------|
E|--1--1--1--------0--0--0--1--0----|--1--1--1--------0--0--0--1--0----|


                                   (Q)
G|----------------------------------|----------------------------------|
D|----------------------------------|----------------------------------|
A|-----------3--3-------------------|-----------3--3-------------------|
E|--1--1--1--------0--0--0--1--0----|--1--1--1--------0--0--0--1--0----|


                                   (R)
G|----------------------------------|----------------------------7-----|
D|----------5-----------------7-----|----------9--------5-5-5-5-----5--|
A|-3-3-3-3-----3-----5-5-5-5-----5--|-7-7-7-7-----7--------------------|
E|----------------------------------|----------------------------------|


                                   (S)
G|----------------------------------|----------------------------------|
D|----------------------------------|----------------------------------|
A|-----7-7-----7-7------7-7------7-7|-----7-7-----7-7------7-7------7-7|
E|-0-0-----0-0------0-0------0-0----|-0-0-----0-0------0-0------0-0----|

			

 CHORUS                            (T)
G|----------------------------------|----------------------------------|
D|----------------------------------|----------------------------------|
A|----------------------------------|----------------------------------|
E|-1---1-1---1-1---3---5---5---5-5-3|---5---5--5-5-3---5---5---5-5-0---|


                                   (U)
G|----------------------------------|----------------------------------|
D|----------------------------------|----------------------------------|
A|----------------------------------|----------------------------------|
E|-1---1-1---1-1---3---5---5---5-5-3|---5---5--5-5-3---5---5---5-5-0---|


                                   (V)
G|----------------------------------|----------------------------------|
D|----------------------------------|----------------------------------|
A|----------------------------------|----------------------------------|
E|-1---1-1---1-1---3---5---5---5-5-3|---5---5--5-5-3---5---5---5-5-0---|


                                   (W)
G|----------------------------------|
D|----------------------------------|
A|----------------------------------|
E|-3--3---3-3-3-----3--3---3-3-3----|


                                   (X)
G|----------------------------------|----------------------------------|
D|----------------------------------|----------------------------------|
A|----------------------------------|----------------------------------|
E|-1--1---1-1-1---1--1---1-1-1------|-3--3---3-3-3---3--3---3-3-3------|


                                   (Y)
G|----------------------------------|----------------------------------|
D|----------------------------------|----------------------------------|
A|----------------------------------|----------------------------------|
E|-1--1---1-1-1---1--1---1-1-1------|-3--3---3-3-3---3--3---3-3-3------|


 CHORUS                            (Z)
G|----------------------------------|----------------------------------|
D|----------------------------------|----------------------------------|
A|----------------------------------|----------------------------------|
E|-1---1-1---1-1---3---5---5---5-5-3|---5---5--5-5-3---5---5---5-5-0---|


                                   (AA)
G|----------------------------------|----------------------------------|
D|----------------------------------|----------------------------------|
A|----------------------------------|----------------------------------|
E|-1---1-1---1-1---3---5---5---5-5-3|---5---5--5-5-3---5---5---5-5-0---|


                                   (AB)
G|----------------------------------|----------------------------------|
D|----------------------------------|----------------------------------|
A|----------------------------------|----------------------------------|
E|-1---1-1---1-1---3---5---5---5-5-3|---5---5--5-5-3---5---5---5-5-0---|


                                   (AC)
G|----------------------------------|
D|----------------------------------|
A|----------------------------------|
E|-3--3---3-3-3-----3--3---3-3-3----|

 REPEAT CHORUS UNTIL THE SONG FADES OUT








Back To Contents

Back To Main Stranglers Index