Fools Rush Out




 SONG: FOOLS RUSH OUT
 ARTIST: THE STRANGLERS 
 ALBUM: RARITIES
 BASSIST: JEAN JACQUES BURNEL
 TAB BY CHRIS@LOOPY0.DEMON.CO.UK

 


                                   (A)
G|----------------------------------|----------------------------------|
D|----------------------------------|----------4---4---3---------------|
A|--------------4--4----------------|------4----------------6---4------|
E|-16S\---4--4--------4--4---2------|--4-------------------------------|
			

                                   (B)
G|----------------------------------|----------------------------------|
D|----------------------------------|----------4---4---3---------------|
A|----------4--4--------------------|------4----------------6---4------|
E|--4--4------------4--4---2--------|--4-------------------------------|


                                   (C)
G|----------------------------------|----------------------------------|
D|----------------------------------|----------4---4---3---------------|
A|----------4--4--------------------|------4----------------6---4------|
E|--4--4------------4--4---2--------|--4-------------------------------|


                                   (D)
G|----------------------------------|----------------------------------|
D|----------------------------------|----------4---4---3---------------|
A|----------4--4--------------------|------4----------------6---4------|
E|--4--4------------4--4---2--------|--4-------------------------------|


                                   (E)
G|----------------------------------|----------------------------------|
D|----------------------------------|----------------------------------|
A|-7--5-----------7--5--------------|-7--5-----------7--5--------------|
E|-------7--5-----------7--5--------|-------7--5------------7--5-------|


                                   (F)
G|----------------------------------|----------------------------------|
D|----------------------------------|----------------------------------|
A|-7--5-----------7--5--------------|-7--5-----------7--5--------------|
E|-------7--5-----------7--5--------|-------7--5------------7--5-------|


                                   (G)
G|----------------------------------|----------------------------------|
D|----------------------------------|----------4---4---3---------------|
A|----------4--4--------------------|------4----------------6---4------|
E|--4--4------------4--4---2--------|--4-------------------------------|


                                   (H)
G|----------------------------------|----------------------------------|
D|----------------------------------|----------4---4---3---------------|
A|----------4--4--------------------|------4----------------6---4------|
E|--4--4------------4--4---2--------|--4-------------------------------|

                                   (I)
G|----------------------------------|----------------------------------|
D|----------------------------------|----------4---4---3---------------|
A|----------4--4--------------------|------4----------------6---4------|
E|--4--4------------4--4---2--------|--4-------------------------------|


                                   (J)
G|----------------------------------|----------------------------------|
D|----------------------------------|----------4---4---3---------------|
A|----------4--4--------------------|------4----------------6---4------|
E|--4--4------------4--4---2--------|--4-------------------------------|


                                   (K)
G|----------------------------------|----------------------------------|
D|----------------------------------|----------------------------------|
A|-7--5-----------7--5--------------|-7--5-----------7--5--------------|
E|-------7--5-----------7--5--------|-------7--5------------7--5-------|


                                   (L)
G|----------------------------------|----------------------------------|
D|----------------------------------|----------------------------------|
A|-7--5-----------7--5--------------|-7--5-----------7--5--------------|
E|-------7--5-----------7--5--------|-------7--5------------7--5-------|


                                   (M)
G|----------------------------------|----------------------------------|
D|----------------------------------|----------4---4---3---------------|
A|----------4--4--------------------|------4----------------6---4------|
E|--4--4------------4--4---2--------|--4-------------------------------|


                                   (N)
G|----------------------------------|----------------------------------|
D|----------------------------------|----------4---4---3---------------|
A|----------4--4--------------------|------4----------------6---4------|
E|--4--4------------4--4---2--------|--4-------------------------------|


                                   (O)
G|----------------------------------|----------------------------------|
D|----------------------------------|----------4---4---3---------------|
A|----------4--4--------------------|------4----------------6---4------|
E|--4--4------------4--4---2--------|--4-------------------------------|


                                   (P)
G|----------------------------------|----------------------------------|
D|----------------------------------|----------4---4---3---------------|
A|----------4--4--------------------|------4----------------6---4------|
E|--4--4------------4--4---2--------|--4-------------------------------|
			

                                   (Q)
G|----------------------------------|----------------------------------|
D|----------------------------------|----------------------------------|
A|---5-5-5--5-5-5----4-4-4--4-4-4---|---2-2-2--2-2-2----0-0-0--0-0-0---|
E|----------------------------------|----------------------------------|


                                   (R)
G|----------------------------------|----------------------------------|
D|----------------------------------|----------4---4---3---------------|
A|----------4--4--------------------|------4----------------6---4------|
E|--4--4------------4--4---2--------|--4-------------------------------|


                                   (S)
G|----------------------------------|----------------------------------|
D|----------------------------------|----------4---4---3---------------|
A|----------4--4--------------------|------4----------------6---4------|
E|--4--4------------4--4---2--------|--4-------------------------------|


                                   (T)
G|----------------------------------|----------------------------------|
D|----------------------------------|----------4---4---3---------------|
A|----------4--4--------------------|------4----------------6---4------|
E|--4--4------------4--4---2--------|--4-------------------------------|


                                   (U)
G|----------------------------------|----------------------------------|
D|----------------------------------|----------4---4---3---------------|
A|----------4--4--------------------|------4----------------6---4------|
E|--4--4------------4--4---2--------|--4-------------------------------|


                                   (V)
G|----------------------------------|----------------------------------|
D|----------------------------------|----------------------------------|
A|-7--5-----------7--5--------------|-7--5-----------7--5--------------|
E|-------7--5-----------7--5--------|-------7--5------------7--5-------|


                                   (W)
G|----------------------------------|----------------------------------|
D|----------------------------------|----------------------------------|
A|-7--5-----------7--5--------------|-7--5-----------7--5--------------|
E|-------7--5-----------7--5--------|-------7--5------------7--5-------|


                                   (X)
G|----------------------------------|----------------------------------|
D|----------------------------------|----------4---4---3---------------|
A|----------4--4--------------------|------4----------------6---4------|
E|--4--4------------4--4---2--------|--4-------------------------------|


                                   (Y)
G|----------------------------------|----------------------------------|
D|----------------------------------|----------4---4---3---------------|
A|----------4--4--------------------|------4----------------6---4------|
E|--4--4------------4--4---2--------|--4-------------------------------|


                                   (Z)
G|----------------------------------|----------------------------------|
D|----------------------------------|----------4---4---3---------------|
A|----------4--4--------------------|------4----------------6---4------|
E|--4--4------------4--4---2--------|--4-------------------------------|


                                   (AA)
G|----------------------------------|----------------------------------|
D|----------------------------------|----------4---4---3---------------|
A|----------4--4--------------------|------4----------------6---4------|
E|--4--4------------4--4---2--------|--4-------------------------------|


                                   (AB)
G|----------------------------------|----------------------------------|
D|----------------------------------|----------4---4---3---------------|
A|----------4--4--------------------|------4----------------6---4------|
E|--4--4------------4--4---2--------|--4-------------------------------|


                                   (AC)
G|----------------------------------|----------------------------------|
D|----------------------------------|----------4---4---3---------------|
A|----------4--4--------------------|------4----------------6---4------|
E|--4--4------------4--4---2--------|--4-------------------------------|


                                   (AD)
G|----------------------------------|----------------------------------|
D|----------------------------------|----------------------------------|
A|---5-5-5--5-5-5----4-4-4--4-4-4---|---2-2-2--2-2-2----0-0-0--0-0-0---|
E|----------------------------------|----------------------------------|

 REPEAT AD UNTIL THE SONG FADES OUT



Back To Contents

Back To Main Stranglers Index