About time About time

Golden Boy





 
 SONG:GOLDEN BOY
 ARTIST: THE STRANGLERS
 ALBUM: ABOUT TIME
 BASSIST: JEAN JACQUES BURNEL
 TAB BY CHRIS@LOOPY0.DEMON.CO.UK

(5)=PULL OFF 
                                   (A)
G|----------------------------------|----------------------------------|
D|----------------------------------|----------------------------------|
A|----------------------------------|----------------------------------|
E|-12-s\---0---0---0---3---5---(5)--|--0---0---0---3---5-----5---------|
			

                                   (B)
G|----------------------------------|----------------------------------|
D|----------------------------------|----------------------------------|
A|----------------------------------|----------------------------------|
E|-0-0-0-3-5-(5)---0-0-0-3-5---5----|-0-0-0-3-5-(5)---0-0-0-3-5---5----|


                                   (C)
G|----------------------------------|----------------------------------|
D|----------------------------------|----------------------------------|
A|----------------------------------|----------------------------------|
E|-0-0-0-3-5-(5)---0-0-0-3-5---5----|-0-0-0-3-5-(5)---0-0-0-3-5---5----|


                                   (D)
G|----------------------------------|----------------------------------|
D|----------------------------------|----------------------------------|
A|----------------------------------|----------------------------------|
E|-0-0-0-3-5-(5)---0-0-0-3-5---5----|-0-0-0-3-5-(5)---0-0-0-3-5---5----|


                                   (E)
G|----------------------------------|----------------------------------|
D|----------------------------------|----------------------------------|
A|----------------------------------|----------------------------------|
E|-3---3---3---3---3---3---3---3----|---8---8---8---8---8---8---8---8--|


                                   (F)
G|----------------------------------|----------------------------------|
D|----------------------------------|----------------------------------|
A|----------------------------------|----------------------------------|
E|-7---7---7---7---7---7---7---7----|-6-6-6-6-6-6-6-6--6-6-6-6-6-6-6-6-|


                                   (G)
G|----------------------------------|----------------------------------|
D|----------------------------------|----------------------------------|
A|----------------------------------|----------------------------------|
E|-0-0-0-0-0-0-0-0--5-5-5-5-5-5-5-5-|-0-0-0-3-5-(5)---0-0-0-3-5-(5)----|


                                   (H)
G|----------------------------------|----------------------------------|
D|----------------------------------|----------------------------------|
A|----------------------------------|----------------------------------|
E|-0-0-0-0-0-0-0-0--5-5-5-5-5-5-5-5-|-0-0-0-3-5-(5)---0-0-0-3-5-(5)----|


                                   (I)
G|----------------------------------|----------------------------------|
D|----------------------------------|----------------------------------|
A|----------------------------------|----------------------------------|
E|-0-0-0-3-5-(5)---0-0-0-3-5---5----|-0-0-0-3-5-(5)---0-0-0-3-5---5----|


                                   (J)
G|----------------------------------|----------------------------------|
D|----------------------------------|----------------------------------|
A|----------------------------------|----------------------------------|
E|-0-0-0-3-5-(5)---0-0-0-3-5---5----|-0-0-0-3-5-(5)---0-0-0-3-5---5----|


                                   (K)
G|----------------------------------|
D|----------------------------------|
A|----------------------------------|
E|-0-0-0-3-5-(5)---0-0-0-3-5---5----|


                                   (L)
G|----------------------------------|----------------------------------|
D|----------------------------------|----------------------------------|
A|----------------------------------|----------------------------------|
E|-3---3---3---3---3---3---3---3----|---8---8---8---8---8---8---8---8--|


                                   (M)
G|----------------------------------|----------------------------------|
D|----------------------------------|----------------------------------|
A|----------------------------------|----------------------------------|
E|-7---7---7---7---7---7---7---7----|-6-6-6-6-6-6-6-6--6-6-6-6-6-6-6-6-|


                                   (N)
G|----------------------------------|----------------------------------|
D|----------------------------------|----------------------------------|
A|----------------------------------|----------------------------------|
E|-0-0-0-0-0-0-0-0--5-5-5-5-5-5-5-5-|-0-0-0-3-5-(5)---0-0-0-3-5-(5)----|


                                   (O)
G|----------------------------------|----------------------------------|
D|----------------------------------|----------------------------------|
A|----------------------------------|----------------------------------|
E|-0-0-0-0-0-0-0-0--5-5-5-5-5-5-5-5-|-0-0-0-3-5-(5)---0-0-0-3-5-(5)----|


                                   (P)
G|----------------------------------|----------------------------------|
D|----------------------------------|----------------------------------|
A|----------------------------------|----------------------------------|
E|-0-0-0-3-5-(5)---0-0-0-3-5---5----|-0-0-0-3-5-(5)---0-0-0-3-5---5----|


                                   (Q)
G|----------------------------------|----------------------------------|
D|----------------------------------|----------------------------------|
A|----------------------------------|----------------------------------|
E|-0-0-0-3-5-(5)---0-0-0-3-5---5----|-0-0-0-3-5-(5)---0-0-0-3-5---5----|


                                   (R)
G|----------------------------------|
D|----------------------------------|
A|----------------------------------|
E|-0-0-0-3-5-(5)---0-0-0-3-5---5----|


                                   (S)
G|----------------------------------|----------------------------------|
D|----------------------------------|----------------------------------|
A|----------------------------------|----------------------------------|
E|-3---3---3---3---3---3---3---3----|---8---8---8---8---8---8---8---8--|


                                   (T)
G|----------------------------------|----------------------------------|
D|----------------------------------|----------------------------------|
A|----------------------------------|----------------------------------|
E|-7---7---7---7---7---7---7---7----|-6-6-6-6-6-6-6-6--6-6-6-6-6-6-6-6-|
 
                     
                                   (U)
G|----------------------------------|----------------------------------|
D|----------------------------------|----------------------------------|
A|----------------------------------|----------------------------------|
E|-0-0-0-3-5-(5)---0-0-0-3-5---5----|-0-0-0-3-5-(5)---0-0-0-3-5---5----|


                                   (V)
G|----------------------------------|----------------------------------|
D|----------------------------------|----------------------------------|
A|----------------------------------|----------------------------------|
E|-0-0-0-3-5-(5)---0-0-0-3-5---5----|-0-0-0-3-5-(5)---0-0-0-3-5---5----|


                                   (W)
G|----------------------------------|----------------------------------|
D|----------------------------------|----------------------------------|
A|----------------------------------|----------------------------------|
E|----------------------------12-S\-|--0-0-0-3-5-(5)---0-0-0-3-5--5----|                               

			
                                   (X)
G|----------------------------------|----------------------------------|
D|----------------------------------|----------------------------------|
A|----------------------------------|----------------------------------|
E|-0-0-0-3-5-(5)---0-0-0-3-5---5----|-0-0-0-3-5-(5)---0-0-0-3-5---5----|


                                   (Y)
G|----------------------------------|----------------------------------|
D|----------------------------------|----------------------------------|
A|----------------------------------|----------------------------------|
E|-3---3---3---3---3---3---3---3----|---8---8---8---8---8---8---8---8--|


                                   (Z)
G|----------------------------------|----------------------------------|
D|----------------------------------|----------------------------------|
A|----------------------------------|----------------------------------|
E|-7---7---7---7---7---7---7---7----|-6-6-6-6-6-6-6-6--6-6-6-6-6-6-6-6-|


                                   (AA)
G|----------------------------------|----------------------------------|
D|----------------------------------|----------------------------------|
A|----------------------------------|----------------------------------|
E|-0-0-0-0-0-0-0-0--5-5-5-5-5-5-5-5-|-0-0-0-3-5-(5)---0-0-0-3-5-(5)----|


                                   (AB)
G|----------------------------------|----------------------------------|
D|----------------------------------|----------------------------------|
A|----------------------------------|----------------------------------|
E|-0-0-0-0-0-0-0-0--5-5-5-5-5-5-5-5-|-0-0-0-3-5-(5)---0-0-0-3-5-(5)----|


                                   (AC)
G|----------------------------------|----------------------------------|
D|----------------------------------|----------------------------------|
A|----------------------------------|----------------------------------|
E|-0-0-0-0-0-0-0-0--5-5-5-5-5-5-5-5-|-0-0-0-3-5-(5)---0-0-0-3-5-(5)----|


                                   (AD)
G|----------------------------------|----------------------------------|
D|----------------------------------|----------------------------------|
A|----------------------------------|----------------------------------|
E|-0-0-0-0-0-0-0-0--5-5-5-5-5-5-5-5-|-0-0-0-3-5-(5)---0-0-0-3-5-(5)----|


                                   (AE)
G|----------------------------------|----------------------------------|
D|----------------------------------|----------------------------------|
A|-7--7---5--5----------------------|----------------------------------|
E|---------------7--7---6--6--------|-5--5---3--3----5--5---3--3-------|


                                   (AF)
G|----------------------------------|----------------------------------|
D|----------------------------------|----------------------------------|
A|-7--7---5--5----------------------|----------------------------------|
E|---------------7--7---6--6--------|-5--5---3--3----5--5---3--3-------|


                                   (AG)
G|----------------------------------|----------------------------------|
D|----------------------------------|----------------------------------|
A|-7--7---5--5----------------------|----------------------------------|
E|---------------7--7---6--6--------|-5--5---3--3----5--5---3--3-------|


                                   (AH)
G|----------------------------------|----------------------------------|
D|----------------------------------|----------------------------------|
A|-7--7---5--5----------------------|----------------------------------|
E|---------------7--7---6--6--------|-5--5---3--3----5--5---3--3-------|


                                   (AI)
G|----------------------------------|----------------------------------|
D|----------------------------------|----------------------------------|
A|----------------------------------|----------------------------------|
E|----0---0---0---3---5---(5)-------|----0---0---0---3---5----5--------|


Back To Contents

Back To Main Stranglers Index