Rattus Norvegicus Rattus Norvegicus

Hanging Around


HANGING AROUND
ARTIST: THE STRANGLERS
ALBUM: RATTUS NORVEGICUS
BASSIST: JEAN JACQUES BURNEL
TAB BY chris@loopy0.demon.co.uk

 S= Slide
                                   (A)           
G|----------------------------------|---------------------------------|
D|----------------------------------|---------10--------------5-------|
A|----------------------------------|---------------------------------|
E|---5---5S\-----------------------|---8---8------8---3---3--------3--|	

Repeat A
                                   (B)
G|----------------------------------|---------------------------------|
D|------------7-------------7-------|----------10--------------5------|
A|----------------------------------|---------------------------------|
E|---5---5---------5---5--------5---|---8---8-------8---3---3------3--|

Repeat B 9 times
                                   (C)
G|----------------------------------|---------------------------------|
D|----------------------------------|---------------------------------|
A|----------------------------------|-----3-3-3-3--3-3-3-3------------|
E|--5-5-5-5--5-5-5-5--3-3-3-3--3-3-3-3-|------------------------------|

                                   (D)             
G|-------------7------------7------|----------10----------------5-----|
D|---------------------------------|----------------------------------|
A|---5----5-------5---5--------5---|--8----8---------8---3---3-----3--|
E|---------------------------------|----------------------------------|

Repeat D 5 times
                                   (E)
G|----------------------------------|---------------------------------|
D|----------------------------------|---------------------------------|
A|--5-5-5-5--5-5-5-5--3-3-3-3--3-3-3-3-|------------------------------|
E|----------------------------------|-1-1-1-1--1-1-1-1--3-3-3-3--3-3-3-3-|


Repeat B 8 times
Repeat C
Repeat D 6 times
Repeat E
Repeat B 14 times
Repeat D 13 times 

                                   (F)
G|------------7----------------7----|---------------------------------|
D|----------------------------------|--3--3--3------------------------|
A|---5---5-----------5---5---------5-|----------3--3--3----5----------|
E|----------------------------------|---------------------------------|





Back To Contents

Back To Main Stranglers Index