The Raven The Raven

Don`t Bring Harry



 SONG: DON`T BRING HARRY
 ARTISIT: THE STRANGLERS 
 ALBUM: THE RAVEN
 BASSIST: JEAN JACQUES BURNEL
 TAB BY: user@johnrosk.softnet.co.uk

 R = REST
 S = SLIDE 

 BASS COMES IN AT 1 MIN 42 SEC


			(A)
G|----------------------------------|---------------------------------|
D|---9------------------------------|---------------------------------|
A|-------12---11---9----------------|---------------------------------|
E|---------------------------12--S--|-3---5---7--10---9-S-10-S-9-S-10-|
					         DO   NOT   PICK 
				
			(B)
G|----------------------------------|---------------------------------|
D|----------------------------------|---------------------------------|
A|----------------------------------|--10--12--10---9------10--9------|
E|---9-----------------------9---R--|-----------------------------12--|

REPEAT A, B
				
			(C)
G|----------------------------------|---------------------------------|
D|----------------------------------|---------------------------------|
A|----------------------------------|---------------------------------|
E|---7---9---10---9-----------------|--5---7---9---7------------------|


			(D)
G|----------------------------------|---------------------------------|
D|----------------------------------|---------------------------------|
A|----------------------------------|---------------------------------|
E|--3---5---3---9-------------------|--9---10---9---2-----------------|

REPEAT C

			(E)
G|----------------------------------|---------------------------------|
D|----------------------------------|---------------------------------|
A|----------------------------------|---------------------------------|
E|--3---5---3---9-------------------|--9---10---9---2---------1----R--|
			

			(F)			
G|----------------------------------|---------------------------------|
D|----------------------------------|---------------------------------|
A|----------------------------------|---------------------------------|
E|---0---------------------------R--|--10--------------------------R--|

							
			(G)
G|----------------------------------|---------------------------------|
D|----------------------------------|---------------------------------|
A|----------------------------------|---------------------------------|
E|---8---------------------------R--|--7----------5---7---5---7---10--|


			(H)
G|----------------------------------|---------------------------------|
D|----------------------------------|---------------------------------|
A|----------------------------------|---------------------------------|
E|--12--------------------------R---|--10--------------------------R--|

			(I)
G|----------------------------------|---------------------------------|
D|----------------------------------|---------------------------------|
A|----------------------------------|---------------------------------|
E|--9----------------------------R--|--2---------3---2-------------R--|

REPEAT C, D, C, D

REPEAT F, G, H, I

REPEAT A, B, A, B


			(J)
G|----------------------------------|---------------------------------|
D|----------------------------------|---------------------------------|
A|----------------------------------|---------------------------------|
E|--7---HOLD------------------------|---------------------------------|
 

Back To Contents

Back To Main Stranglers Index