La Folie La Folie

How To Find True Love & Happiness
In The Present Day



 SONG: HOW TO FIND TRUE LOVE AND HAPPINESS
       IN THE PRESENT DAY
 ARTISIT: THE STRANGLERS 
 ALBUM: LA FOLIE
 BASSIST: JEAN JACQUES BURNEL
 TAB BY CHRIS@LOOPY0.DEMON.CO.UK

 
 
                                   (A)
G|----------------------------------|----------------------------------|
D|----------------------------------|----------------------------------|
A|---4-4-4-----------------4-4-4----|---4-4-4--------------------------|
E|-------------6-6-6----------------|-------------6-6-6--------4-4-4---|
			

                                   (B)
G|----------------------------------|----------------------------------|
D|----------------------------------|----------------------------------|
A|----4--6--4--3--1-----------------|---4--6--4--3--1--1---------------|
E|----------------------4--1--------|----------------------4--1--1-----|


                                   (C)
G|----------------------------------|----------------------------------|
D|----------------------------------|---4---3---------------4---6------|
A|--4--6--4--3--1--1--1-------------|-----------6---4---6--------------|
E|-----------------------4--1--1--1-|----------------------------------|


                                   (D)
G|----------------------------------|----------------------------------|
D|----------------------------------|----------------------------------|
A|----4--4-----------------4--4-----|----4--4--------------------------|
E|--------------6--6----------------|--------------6--6--------4--4----|


                                   (E)
G|----------------------------------|----------------------------------|
D|----------------------------------|----------------------------------|
A|----4--6--4--3--1-----------------|---4--6--4--3--1--1---------------|
E|----------------------4--1--------|----------------------4--1--1-----|


                                   (F)
G|----------------------------------|----------------------------------|
D|----------------------------------|---4---3---------------4---6------|
A|--4--6--4--3--1--1--1-------------|-----------6---4---6--------------|
E|-----------------------4--1--1--1-|----------------------------------|


                                   (G)
G|----------------------------------|----------------------------------|
D|----------------------------------|----------------------------------|
A|------4--3------------------------|----------------3---2---0---------|
E|-------------5--5----3--3----5--5-|---3--3---------------------3-----|


                                   (H)
G|----------------------------------|----------------------------------|
D|----------------------------------|----------------------------------|
A|--------3------------------3------|--------2-------------2-0-3-2-0---|
E|--1--1-----1---------1--1-----1---|--0--0-----0-----0--0-----------3-|


                                   (I)
G|----------------------------------|----------------------------------|
D|----------------------------------|----------------------------------|
A|--------3-----------------3-------|--------2-------------2-0-3-2-0---|
E|--1--1-----1---------1--1-----1---|--0--0-----0-----0--0-----------3-|


                                   (J)
G|----------------------------------|----------------------------------|
D|----------------------------------|----------------------------------|
A|--------3-----------------3-------|----------------------------------|
E|--1--1-----1--------1--1------1---|-----4--4--4--4--4--4--4--4--4----|


                                   (K)
G|----------------------------------|----------------------------------|
D|----------------------------------|----------------------------------|
A|----4--4-----------------4--4-----|----4--4--------------------------|
E|---------------6--6---------------|---------------6--6-------4--4----|


                                   (L)
G|----------------------------------|----------------------------------|
D|----------------------------------|----------------------------------|
A|----4--6--4--3--1-----------------|---4--6--4--3--1--1---------------|
E|-----------------------4--1-------|-----------------------4--1--1----|


                                   (M)
G|----------------------------------|----------------------------------|
D|----------------------------------|---4---3---------------4---6------|
A|--4--6--4--3--1--1--1-------------|-----------6---4---6--------------|
E|-----------------------4--1--1--1-|----------------------------------|


                                   (N)
G|----------------------------------|----------------------------------|
D|----------------------------------|----------------------------------|
A|------4--3------------------------|-----------------3---2---0--------|
E|-------------5--5----3--3----5--5-|---3--3----------------------3----|


                                   (0)
G|----------------------------------|----------------------------------|
D|----------------------------------|----------------------------------|
A|--------3------------------3------|--------2-------------2-0-3-2-0---|
E|--1--1-----1---------1--1-----1---|--0--0-----0-----0--0-----------3-|


                                   (P)
G|----------------------------------|----------------------------------|
D|----------------------------------|----------------------------------|
A|--------3------------------3------|--------2-------------2-0-3-2-0---|
E|--1--1-----1---------1--1-----1---|--0--0-----0-----0--0-----------3-|


                                   (Q)
G|----------------------------------|----------------------------------|
D|----------------------------------|----------------------------------|
A|--------3------------------3------|----------------------------------|
E|--1--1-----1---------1--1-----1---|-----4--4--4--4--4--4--4--4--4----|


                                   (R)
G|----------------------------------|----------------------------------|
D|----------------------------------|----------------------------------|
A|--------3------------------3------|--------2-------------2-0-3-2-0---|
E|--1--1-----1---------1--1-----1---|--0--0-----0-----0--0-----------3-|

 REPEAT (R) UNTIL THE SONG ENDS









Back To Contents

Back To Main Stranglers Index