The Raven The Raven

Ice




 SONG :   ICE
 ARTISIT: THE STRANGLERS 
 ALBUM:   THE RAVEN
 BASSIST: JEAN JACQUES BURNEL
 TAB BY CHRIS@LOOPY0.DEMON.CO.UK


 S= SLIDE
 
 INTRO                             (A)
G|--------5-7-8-7-5-----------5-7-8-10-8-7-5---------------------------|
D|--5-7-8-----------8-7-5-7-8----------------8-7-5----3--4--5----------|
A|-------------------------------------------------5-------------------|
E|---------------------------------------------------------------------|
			

                                   (B)
G|---------------------------------------------------------------------|
D|----------0-1-0---------------0-1-3-1-0------------------------------|
A|----0-1-3-------3-1-0---0-1-3-----------3-1-0---0-1-0---0-1-0--------|
E|--3-------------------3-----------------------3-------3-------3-2----|


                                   (C)
G|----------------------------------|----------------------------------|
D|----------------------------------|-------------1-1--3-3-3-3-3-3-3-3-|
A|----------------------------------|-1-1-1--3-3-3---------------------|
E|-1-1-1-1-1-1-1-1--3-3-3-3-3-3-3-3-|----------------------------------|


                                   (D)
G|----------------------------------|----------------------------------|
D|----------------------------------|-------------1-1--3-3-3-3-3-3-3-3-|
A|----------------------------------|-1-1-1--3-3-3---------------------|
E|-1-1-1-1-1-1-1-1--3-3-3-3-3-3-3-3-|----------------------------------|


                                   (E)
G|----------------------------------|----------------------------------|
D|----------------0--1--0--1--------|----3--3--3--3--3--3--3--3--------|
A|-------0--1--3--------------------|----------------------------------|
E|----3-----------------------------|----------------------------------|


                                   (F)
G|--14--16--14--16--14--16--14--16--|--13--14--13--14--13--14--13--14--|
D|----------------------------------|----------------------------------|
A|----------------------------------|----------------------------------|
E|----------------------------------|----------------------------------|


                                   (G)
G|--11--13--11--13--11--13--11--13--|--9--11--9--11--9--11--9--11------|
D|----------------------------------|----------------------------------|
A|----------------------------------|----------------------------------|
E|----------------------------------|----------------------------------|


                                   (H)
G|--14--16--14--16--14--16--14--16--|--13--14--13--14--13--14--13--14--|
D|----------------------------------|----------------------------------|
A|----------------------------------|----------------------------------|
E|----------------------------------|----------------------------------|


                                   (I)
G|--11--13--11--13--11--13--11--13--|--9--11--9--11--9--11--9--11------|
D|----------------------------------|----------------------------------|
A|----------------------------------|----------------------------------|
E|----------------------------------|------------------------------12S-|


 VERSE                             (J)
G|----------------------------------|----------------------------------|
D|----------------------------------|----------------------------------|
A|-----4-0-3-0-1-0------4-0-3-0-1-0-|-----4-0-3-0-1-0------4-0-3-0-1-0-|
E|-3-1--------------3-1-------------|-3-1--------------3-1-------------|


                                   (K)
G|----------------------------------|----------------------------------|
D|----------------------------------|----------------------------------|
A|-----4-0-3-0-1-0------4-0-3-0-1-0-|-----4-0-3-0-1-0------4-0-3-0-1-0-|
E|-3-1--------------3-1-------------|-3-1--------------3-1-------------|


                                   (L) 
G|----------------------------------|----------------------------------|
D|----------------------------------|----------------------------------|
A|-----4-0-3-0-1-0------4-0-3-0-1-0-|-----4-0-3-0-1-0------4-0-3-0-1-0-|
E|-3-1--------------3-1-------------|-3-1-------------3-1--------------|


                                   (M)
G|----------------------------------|----------------------------------|
D|----------------------------------|----------------------------------|
A|-----4-4------3------1------------|-----4-4------3------1------------|
E|-3-1------3-1----3-1----1-3-1-3-1-|-3-1------3-1----3-1----1-3-1-3-1-|


REPEAT K,L,M

                                   (N)
G|----------------------------------|----------------------------------|
D|----------------------------------|----------------------------------|
A|--4---2---0-------4---2---0-------|-4--2--0-----4--2--0--------------|
E|--------------4 --------------3---|---------4-----------3-3-3-3-3-3-3-3|


 VERSE                             (O)
G|----------------------------------|----------------------------------|
D|----------------------------------|----------------------------------|
A|-----6-0-5-0-3-0------6-0-5-0-3-0-|-----6-0-5-0-3-0------6-0-5-0-3-0-|
E|-5-3--------------5-3-------------|-5-3--------------5-3-------------|


                                   (P)
G|----------------------------------|----------------------------------|
D|----------------------------------|----------------------------------|
A|-----6-0-5-0-3-0------6-0-5-0-3-0-|-----6-0-5-0-3-0------6-0-5-0-3-0-|
E|-5-3--------------5-3-------------|-5-3--------------5-3-------------|


                                   (Q)
G|----------------------------------|----------------------------------|
D|----------------------------------|----------------------------------|
A|-----6-6------5------3------------|-----6-6------5------3------------|
E|-5-3------5-3----5-3----3-5-3-5-3-|-5-3------5-3----5-3----3-5-3-5-3-|


                                   (R)
G|----------------------------------|----------------------------------|
D|----------------------------------|----------------------------------|
A|----------------------------------|----------------------------------|
E|--5--5--5---5--3--2--0--------12S-|--5--5--5---5--3--2--0--------12S-|


                                   (S)
G|----------------------------------|----------------------------------|
D|----------------------------------|----------------------------------|
A|----------------------------------|----------------------------------|
E|--5--5--5---5--3--2--0--------12S-|--5--5--5---5--3--2--0------------|


                                   (T)
G|----------------------------------|----------------------------------|
D|----------------------------------|----------------------------------|
A|--5---3---1--------5---3---1---1--|--5---5---1-------5---3---1---1---|
E|--------------3-------------------|--------------3-------------------|


                                   (U)
G|----------------------------------|----------------------------------|
D|----------------------------------|----------------------------------|
A|--4---2---0-------4---2---0-------|-4--2--0-----4--2--0--------------|
E|--------------4---------------3---|---------4------------3-3-3-3-12S-|


                                   (V)
G|----------------------------------|----------------------------------|
D|----------------------------------|----------------------------------|
A|-----4-0-3-0-1-0------4-0-3-0-1-0-|-----4-0-3-0-1-0------4-0-3-0-1-0-|
E|-3-1--------------3-1-------------|-3-1--------------3-1-------------|


REPEAT V UNTIL THE SONG ENDS        
 

Back To Contents

Back To Main Stranglers Index