The Raven The Raven

Longships



 SONG: LONGSHIPS 
 ARTISIT: THE STRANGLERS 
 ALBUM: THE RAVEN
 BASSIST : JEAN JACQUES BURNEL
 TAB BY CHRIS@LOOPY0.DEMON.CO.UK

 
                                   (A)
G|----------------------------------|----------------------------------|
D|----------------------------------|----------------------------------|
A|----------------------------------|----------------------------------|
E|----5-5-5--5-5-5--5-5-5--5-5-5----|----5-5-5--5-5-5--5-5-5--5-5-5----|


                                   (B)
G|----------------------------------|----------------------------------|
D|----------------------------------|----------------------------------|
A|----------------------------------|------------------5-5-5--3-3-3----|
E|----3-3-3--3-3-3--3-3-3--3-3-3----|----0-0-0--0-0-0------------------|


                                   (C)
G|----------------------------------|----------------------------------|
D|----------------------------------|----------------------------------|
A|----------------------------------|----------------------------------|
E|----5-5-5--5-5-5--5-5-5--5-5-5----|----5-5-5--5-5-5--5-5-5--5-5-5----|


                                   (D)
G|----------------------------------|----------------------------------|
D|----------------------------------|----------------------------------|
A|----------------------------------|------------------5-5-5--3-3-3----|
E|----3-3-3--3-3-3--3-3-3--3-3-3----|----0-0-0--0-0-0------------------|


                                   (E)
G|----------------------------------|----------------------------------|
D|----------------------------------|----------------------------------|
A|----------------------------------|----------------------------------|
E|----5-3-0--5-3-0--5-3-0--5-3-0----|----1-1-1--0-0-0--1-1-1--0-0-0----|


                                   (F)
G|-------------------------3-3-3----|----------------------------------|
D|------------------3-3-3-----------|----------------------------------|
A|----1-1-1--5-5-5------------------|----------------------------------|
E|----------------------------------|----1-1-1--0-0-0--1-1-1--0-0-0----|


                                   (G)
G|----------------------------------|----------------------------------|
D|----------------------------------|----------------------------------|
A|----3-3-3--3-3-3------------------|------------------3-3-3--3-3-3----|
E|------------------3-3-3--3-3-3----|----0-0-0--0-0-0------------------|

  
                                   (H)
G|----------------------------------|----------------------------------|
D|----------------------------------|----------------------------------|
A|----------------------------------|----3-3-3--3-3-3------------------|
E|----3-3-3--3-3-3--0-0-0--0-0-0----|------------------3-3-3--3-3-3----|


                                   (I)
G|----------------------------------|
D|----------------------------------|
A|------------------5-5-5--3-3-3----|
E|----0-0-0--0-0-0------------------|


                                   (J)
G|----------------------------------|----------------------------------|
D|----------------------------------|----------------------------------|
A|------------------5-5-5--3-3-3----|------------------5-5-5--3-3-3----|
E|----5-3-0--5-3-0------------------|----5-3-0--5-3-0------------------|


 REPEAT J UNTIL THE SONG ENDS                          

Back To Contents

Back To Main Stranglers Index