Love 30





 SONG: LOVE 30
 ARTIST: THE STRANGLERS
 ALBUM: OFF THE BEATEN TRACK
 BASSIST: JEAN JACQUES BURNEL
 TAB BY CHRIS@LOOPY0.DEMON.CO.UK

 THIS BASS TAB STARTS FROM 1m:16s INTO THE TRACK
                                   (A)
G|----------------------------------|----------------------------------|
D|----------------------------------|----------------------------------|
A|----------------------------------|----------------------------------|
E|--0----------------3--------------|--7----------7------------0-------|


                                   (B)
G|----------------------------------|----------------------------------|
D|----------------------------------|----------------------------------|
A|----------------------------------|----------------------------------|
E|--0----0--0--------0----0--0------|--3----3--3--------3----3--3------|


                                   (C)
G|----------------------------------|----------------------------------|
D|----------------------------------|----------------------------------|
A|----------------------------------|----------------------------------|
E|--7----7--7--------7----7--7------|--0----0--0--------0----0--0------|


                                   (D)
G|----------------------------------|----------------------------------|
D|----------------------------------|----------------------------------|
A|----------------------------------|----------------------------------|
E|--0----0--0--------0----0--0---2--|--3----3--3--------3----3--3------|


                                   (E)
G|----------------------------------|----------------------------------|
D|----------------------------------|----------------------------------|
A|----------------------------------|----------------------------------|
E|--7----7--7------7--7----7-7-5-3--|--0----0--0---0--0---0--0---7-----|


                                   (F)
G|----------------------------------|----------------------------------|
D|----------------------------------|----------------------------------|
A|----------------------------------|----------------------------------|
E|-0---0--0---0--0---0--0-0-0-2-2-2-|-3---3--3---3--3---3--3-3-3-5-5-5-|



                                   (G)
G|----------------------------------|----------------------------------|
D|----------------------------------|----------------------------------|
A|----------------------------------|----------------------------------|
E|-7---7--7-------7---7-7-7--7-7-7--|-7-7-7--7-7-7-0---0-0---0-0---0-0-7-|



                                   (H)
G|----------------------------------|----------------------------------|
D|----------------------------------|----------------------------------|
A|--5----5--5---5--5----5--7--5-----|----------------------------------|
E|----------------------------------|--7----7--7------7--7----7--7--5--|


                                   (I)
G|----------------------------------|----------------------------------|
D|----------------------------------|----------------------------------|
A|--5----5--5---5--5---5--7--9--7---|----------------------------------|
E|----------------------------------|--7----7--7------7--7----7--7--5--|


                                   (J)
G|----------------------------------|----------------------------------|
D|----------------------------------|----------------------------------|
A|--9----9--9---9--9----9--10--9----|--7-----5-----3-------------------|
E|----------------------------------|--------------------7-----5-------|


                                   (K)
G|----------------------------------|----------------------------------|
D|----------------------------------|----------------------------------|
A|----------------------------------|----------------------------------|
E|--3---2---3---------7----7--7-----|--7--7----7--7---6---5---3---0--0-|


                                   (L)
G|----------------------------------|----------------------------------|
D|----------------------------------|----------------------------------|
A|----------------------------------|----------------------------------|
E|-----7---7---7------7---7---7-----|-----7---7---7------7---7---7-----|


                                   (M)
G|----------------------------------|----------------------------------|
D|----------------------------------|----------------------------------|
A|----------------------------------|----------------------------------|
E|----0-----0-----0--0--0--0--------|-0--0--0--0--------0--0--0--0-----|
			

                                   (N)
G|----------------------------------|----------------------------------|
D|----------------------------------|----------------------------------|
A|----------------------------------|----------------------------------|
E|----3-----3-----3--3--3--3--------|-3--3--3--3--------3--3--3--3-----|


                                   (O)
G|----------------------------------|----------------------------------|
D|----------------------------------|----------------------------------|
A|----------------------------------|----------------------------------|
E|-7--7--7--7--------7--7--7--7-----|-7--7--7--7------7--7--7--7--7--7-|


                                   (P)
G|----------------------------------|----------------------------------|
D|----------------------------------|----------------------------------|
A|----------------------------------|----------------------------------|
E|-----0------0--0----0--7--7--7----|---7--7--7---7--7--7---7--7--7----|


                                   (Q)
G|----------------------------------|----------------------------------|
D|----------------------------------|----------------------------------|
A|--5----5--5---5--5----5--7--5-----|----------------------------------|
E|----------------------------------|-7---5--7---5--7----5--7--5--7--5-|


                                   (R)
G|----------------------------------|----------------------------------|
D|----------------------------------|----------------------------------|
A|--5----5--5---5--5---5--7--9--7---|----------------------------------|
E|----------------------------------|-7---5--7---5--7----5--7--5--7--5-|


                                   (S)
G|----------------------------------|----------------------------------|
D|----------------------------------|----------------------------------|
A|--9----9--9---9--9----9--10--9----|--7--7--7----5-----3--3--3--------|
E|----------------------------------|----------------------------------|


                                   (T)
G|----------------------------------|----------------------------------|
D|----------------------------------|----------------------------------|
A|----------------------------------|----------------------------------|
E|--7----5--5--5----3----2--2--2----|-3--3--3----7--7--7----7--7--7----|


                                   (U)
G|----------------------------------|----------------------------------|
D|----------------------------------|----------------------------------|
A|----------------------------------|----------------------------------|
E|-7--7--7----7--7--7----7--7--7----|-7--7--7----7--7--7----7--7--7----|


                                   (V)
G|----------------------------------|----------------------------------|
D|----------------------------------|----------------------------------|
A|----------------------------------|----------------------------------|
E|-----0----0--0------0--7--7--7----|-7--7--7----7--7--7----7--7--7----|


                                   (W)
G|----------------------------------|----------------------------------|
D|----------------------------------|----------------------------------|
A|----------------------------------|----------------------------------|
E|-0--0--0----0--0--0----0--0--0----|-0--0--0----0--0--0----0--0--0----|


                                   (X)
G|----------------------------------|----------------------------------|
D|----------------------------------|----------------------------------|
A|----------------------------------|----------------------------------|
E|-0--0--0----0--0--0----3--3--3----|-3--3--3----3--3--3----3--3--3----|


                                   (Y)
G|----------------------------------|----------------------------------|
D|----------------------------------|----------------------------------|
A|----------------------------------|----------------------------------|
E|-3--3--3----3--3--3----3--3--3----|-3--3--3----7--7--7----7--7--7----|


                                   (Z)
G|----------------------------------|----------------------------------|
D|----------------------------------|----------------------------------|
A|----------------------------------|----------------------------------|
E|-7--7--7----7--7--7----7--7--7----|-7--7--7----7--7--7----7--7--7----|


                                   (AA)
G|----------------------------------|----------------------------------|
D|----------------------------------|----------------------------------|
A|----------------------------------|----------------------------------|
E|-----0---0---0------0---0---0-----|-----0---0---0------0---0---0-----|


                                   (AB)
G|----------------------------------|----------------------------------|
D|----------------------------------|----------------------------------|
A|----------------------------------|----------------------------------|
E|-----7---7---7------7---7---7-----|-----7---7---7------7---7---7-----|

 Repeat AA & AB Until The Song Fades Out

Back To Contents

Back To Main Stranglers Index