About time About time

Lucky Finger


 
 SONG: LUCKY FINGER
 ARTIST: THE STRANGLERS
 ALBUM: ABOUT TIME
 BASSIST: JEAN JACQUES BURNEL
 TAB BY user@johnrosk.softnet.CO.UK

 R = REST

 S = SLIDE

 BASS COMES IN AT 11 SECONDS



			(A)
G|----------------------------------|---------------------------------|
D|----------------------------------|---------------------------------|
A|---5------R---5-----------3---R---|--5------R---5-----------3---R---|
E|-----------------5-R-5------------|-----------------5-R-5-----------|

REPEAT A 				

			(B)
G|----------------------------------|---------------------------------|
D|----------------------------------|---------------------------------|
A|----------------------------------|------------------------3---R----|
E|---2-------R---2---0------2---R---|--3------R---3---1---------------|

REPEAT A

			(C)
G|----------------------------------|---------------------------------|
D|----------------------------------|---------------------------------|
A|----------------------------------|------------------------0---R----|
E|---2-------R---2---0------2---R---|--3------R---3---1---------------|

				
			(D)
G|----------------------------------|---------------------------------|
D|----------------------------------|---------------------------------|
A|---3-------R---3-----------1---R--|--3------R---3-----------1---R---|
E|-------------------3-R-3----------|-----------------3-R-3-----------|

REPEAT B, A

			(E)
G|----------------------------------|---------------------------------|
D|----------------------------------|---------------------------------|
A|----------------------------------|---------------------------------|
E|---2-------R---2---0------2---R---|---3------R---3---1-------R---1--|

REPEAT D, A, A 

			(F)
G|----------------------------------|---------------------------------|
D|----------------------------------|---------------------------------|
A|----------------------------------|--------0----3----2----0---------|
E|---1-------R--1---3-------R--3----|---1------------------------3----|


REPEAT A, A, A 

REPEAT F, A, B, A, C, D

REPEAT B, A, C, D

REPEAT A, A, F, A

REPEAT A, A, F, A

		
			(G)					
G|----------------------------------|---------------------------------|
D|----------------------------------|---------------------------------|
A|----------------------------------|---------------------------------|
E|---4--S-5-5-5-5-R-4--S-5-5-5-5-5--|--4--S-5-5-5-5-5-5-6-----5-------|


REPEAT G, G

			(H)			
G|----------------------------------|---------------------------------|
D|----------------------------------|---------------------------------|
A|----------------------------------|---------------------------------|
E|---4--S-5-5-5-5-R-4--S-5-5-5-5-5--|--4--5-------3------1------0-----|
						

REPEAT A, A

			(I)
G|----------------------------------|---------------------------------|
D|----------------------------------|---------------------------------|
A|----------------------------------|---------------------------------|
E|---1-------R--1---3-------R--3----|--1-------R--1---3--------R--3---|


REPEAT A, A, A, F

REPEAT A, A, A, F

REPEAT A 5 TIMES


			(J)
G|----------------------------------|---------------------------------|
D|----------------------------------|---------------------------------|
A|--------0----3----2----0----------|--------0----3----2----0---------|
E|---1-------------------------3----|---1------------------------3----|

REPEAT A, J, A, J, A


			(K)
G|----------------------------------|---------------------------------|
D|----------------------------------|---3----2----0----5----3-----2---|
A|--------0----3----2----0----------|---------------------------------|
E|---1-------------------------3----|---------------------------------|


			(M)
G|----------------------------------|---------------------------------|
D|---0-HOLD-------------------------|---------------------------------|
A|----------------------------------|---------------------------------|
E|----------------------------------|---------------------------------|

Back To Contents

Back To Main Stranglers Index