Black And White Black And White

Mean To Me



 SONG : MEAN TO ME 
 ARTISIT: THE STRANGLERS 
 ALBUM: BLACK AND WHITE 
 BASSIST : JEAN JACQUES BURNEL
 TAB BY CHRIS@LOOPY0.DEMON.CO.UK

 
                                    
                                   (A)
G|----------------------------------|----------------------------------|
D|----------------------------------|----------------------------------|
A|----------------------------------|---------------------5--6--7------|
E|-5-5-5-5-5-5-3-4-5-5-5-5-5-5-3-4--|-5-5-5-5-5-5-3-4-5----------------|
	

                                   (B)
G|----------------------------------|----------------------------------|
D|----------------------------------|------------------7-7-7-7-7-5-----|
A|----------------------------------|------------------------------8-7-|
E|-5-5-5-5-5-5-3-4-5-5-5-5-5-5-3-4--|-5-5-5-5-5-5-3-4-5----------------|


                                   (C)
G|----------------------------------|----------------------------------|
D|----------------------------------|-----7-7-5-5-----------7-7-5-5----|
A|-5-5-3-3-2-2-0-0--5-5-3-3-2-2-----|-------------7-7-0-0----------5-5-|
E|------------------------------3-4-|-5-5------------------------------|


                                   (D)
G|----------------------------------|
D|----------------------------------|
A|-7-7------------------------5-6-7-|
E|-----3-3--5-5-5-5-5-5-5-5-5-------|


                                   (E)
G|----------------------------------|---------------------5-7-8-7-5----|
D|----------------------------------|-------------------7-----------7--|
A|----------------------------------|----------------------------------|
E|-5-5-5-5-5-5-3-4-5-5-5-5-5-5-3-4--|-5-5-5-5-5-5-3-4-5----------------|


                                   (F)
G|----------------------------------|----------------------------------|
D|----------------------------------|-----7-7-5-5-----------7-7-5-5----|
A|-5-5-3-3-2-2-0-0--5-5-3-3-2-2-----|-------------7-7-0-0----------5-5-|
E|------------------------------3-4-|-5-5------------------------------|


                                   (G)
G|----------------------------------|
D|----------------------------------|
A|-7-7------------------------5-6-7-|
E|-----3-3--5-5-5-5-5-5-5-5-5-------|


 REPEAT B,C,D



                                   (H)
G|----------------------------------|----------------------------------|
D|----------------------------------|----------------------------------|
A|----------------------------------|---------------------2-2-3-3-4-4--|
E|-5-5-5-5-5-5-3-4-5-5-5-5-5-5-3-4--|-5-5-5-5-5-5-3-4-5-5--------------|


                                   (I)
G|----------------------------------|----------------------------------|
D|----------------------------------|-----7-7-5-5-----------7-7-5-5----|
A|-5-5-3-3-2-2-0-0--5-5-3-3-2-2-----|-------------7-7-0-0----------5-5-|
E|------------------------------3-4-|-5-5------------------------------|


                                   (J)
G|----------------------------------|
D|----------------------------------|
A|-7-7------------------------5-6-7-|
E|-----3-3--5-5-5-5-5-5-5-5-5-------|


                                   (K)
G|----------------------------------|----------------------------------|
D|------------------7-7-7-7-7-5-----|----------------------------------|
A|------------------------------8-7-|-5-5-3-3-2-2-0-0--5-5-3-3-2-2-----|
E|-5-5---5---5---5-5----------------|------------------------------3-4-|


                                   (L)
G|----------------------------------|----------------------------------|
D|-----7-7-5-5-----------7-7-5-5----|----------------------------------|
A|-------------7-7-0-0----------5-5-|-7-7------------------------5-6-7-|
E|-5-5------------------------------|-----3-3--5-5-5-5-5-5-5-5-5-------|


                                   (M)
G|----------------------------------|---------------------5-7-8-7-5----|
D|----------------------------------|-------------------7-----------7--|
A|----------------------------------|----------------------------------|
E|-5-5-5-5-5-5-3-4-5-5-5-5-5-5-3-4--|-5-5-5-5-5-5-3-4-5----------------|


                                   (N)
G|----------------------------------|----------------------------------|
D|----------------------------------|-----7-7-5-5-----------7-7-5-5----|
A|-5-5-3-3-2-2-0-0--5-5-3-3-2-2-----|-------------7-7-0-0----------5-5-|
E|------------------------------3-4-|-5-5------------------------------|


                                   (0)
G|----------------------------------|----------------------------------|
D|----------------------------------|----------------------------------|
A|-7-7------------------------2-2-3-3-4-4-5-5-3-3-2-2-0-0--5-5-3-3-2-2-|
E|----3-3--5-5-5-5-5-5-5-5-5-5------|----------------------------------|


                                   (P)
G|----------------------------------|----------------------------------|
D|---------7-7-5-5----------7-7-5-5-|----------------------------------|
A|-----------------7-7-0-0---------5-5--7-7----------------------------|
E|-3-4-5-5--------------------------|-------3-3----5-------------------|






Back To Contents

Back To Main Stranglers Index