All Twelve Inches All Twelve Inches

Midnight Summer Dream



ARTIST: THE STRANGLERS
SONG: MIDNIGHT SUMMER DREAM
ALBUM: ALL TWELVE INCHES
BASSIST: JEAN JACQUES BURNEL
TAB BY: user@johnrosk.softnet.co.uk
	



			(A)
G|----------------------------------|---------------------------------|
D|----------------------------------|---------------------------------|
A|---5-R--------5-R-----5---7---5---|---4-R--------4-R-----4---4---R--|
E|----------------------------------|---------------------------------|
			
			(B)
G|----------------------------------|---------------------------------|
D|----------------------------------|---------------------------------|
A|----------------------------------|---------------------------------|
E|---2-R--------2-R-----2---0---1---|---2-R-------2-R------2---2---0--|
			
			(C)
G|----------------------------------|---------------------------------|
D|----------------------------------|---------------------------------|
A|----------------------------------|---------------------------------|
E|---5-R--------5-R-----5---7---5---|---4-R-------4-R------4---5---4--|


REPEAT B, A, B, C, B

			(D)
G|----------------------------------|---------------------------------|
D|----------------------------------|---------------------------------|
A|---5-R--------5-R-----5---5---0---|---5-R-------5-R------5---4---2--|
E|----------------------------------|---------------------------------|

REPEAT B

			(E)
G|----------------------------------|---------------------------------|
D|----------------------------------|---------------------------------|
A|---5-R--------5-R-----5---5---0---|---5-R-------5-R------0---5---4--|
E|----------------------------------|---------------------------------|

			
			(F)			
G|----------------------------------|---------------------------------|
D|----------------------------------|---------------------------------|
A|---2-R--------2-R------2---2---0--|---4-R-------4-R------4---4---0--|
E|----------------------------------|---------------------------------|


			(G)					
G|----------------------------------|---------------------------------|
D|----------------------------------|---------------------------------|
A|---5-R--------5-R-----5---7---5---|---4-R--------4-R-----4---5---4--|
E|----------------------------------|---------------------------------|
			
REPEAT  B, C, 

			(H)
G|----------------------------------|---------------------------------|
D|----------------------------------|---------------------------------|
A|----------------------------------|---------------------------------|
E|---2-R--------2-R-----2---0---1---|---2-R-------2-R------2---2---1--|


			(I)
G|----------------------------------|---------------------------------|
D|----------------------------------|---------------------------------|
A|----------------------------------|---------------------------------|
E|---0---------0---0---0--------0---|---2-R-------2-R------2---2---0--|


			(J)
G|----------------------------------|---------------------------------|
D|----------------------------------|---------------------------------|
A|---5-R-------5-R------5---5---5---|---4-R-------4-R------4---5---6--|
E|----------------------------------|---------------------------------|

			(K)
G|----------------------------------|---------------------------------|
D|----------------------------------|---------------------------------|
A|----------------------------------|---------------------------------|
E|---0---0---0---0---0---------0----|---2-R-------2-R------2---2---0--|


			(L)
G|----------------------------------|---------------------------------|
D|----------------------------------|---------------------------------|
A|---5-R-------5-R------5---5---5---|---4-R-------4-R------4---4---0--|
E|----------------------------------|---------------------------------|

			(M)
G|----------------------------------|---------------------------------|
D|----------------------------------|---------------------------------|
A|---2-R-------2-R------2---2---0---|---------------------------------|
E|----------------------------------|---3-R-------3-R------3---3---0--|

			(N)

G|----------------------------------|---------------------------------|
D|----------------------------------|---------------------------------|
A|----------------------------------|---------------------------------|
E|---2-R-------2-R------2---0---1---|---2-R---------------------------|


REPEAT A, B, C, B, G, B, C, B

REPEAT D, B, E, F, G, B, C, H

REPEAT I, J, K, L, M, N

REPEAT G, B, C, B, G, B, C, B

REPEAT D, B, E, F, A, B, C, B

REPEAT  I, J, K, L, M

			(O)
G|----------------------------------|---------------------------------|
D|----------------------------------|---------------------------------|
A|---0-R-------0-R------0---0----0--|---2-R-------2-R------2---2---2--|
E|----------------------------------|---------------------------------|


REPEAT O 4 TIMES
 
REPEAT A, B, C, B, G, B, C, B

REPEAT D, B

			(P)
G|----------------------------------|---------------------------------|
D|----------------------------------|---------------------------------|
A|---2-R-------2-R------2---2---2---|---2-R-------2-R------2---2---2--|
E|----------------------------------|---------------------------------|

		
			(Q)
G|----------------------------------|---------------------------------|
D|----------------------------------|---------------------------------|
A|---5-R-------5-R------5---4---0---|---2-R-------2-R------2---2---2--|
E|----------------------------------|---------------------------------|

			(R)
G|----------------------------------|---------------------------------|
D|----------------------------------|---4-R-------4-R------4---4---4--|
A|---5-R-------5-R------5---4---0---|---------------------------------|
E|----------------------------------|---------------------------------|


			(S)
G|----------------------------------|---------------------------------|
D|---4-R-------4-R------4---4---4---|---------------------------------|
A|----------------------------------|---7---7------0---5---5------0---|
E|----------------------------------|---------------------------------|


			(T)
G|----------------------------------|---------------------------------|
D|----------------------------------|---4---4---R-------4---4---R-----|
A|--------------0---5---5---R---4---|---------------4---------------4-|
E|--7---7---------------------------|---------------------------------|


			(U)
G|----------------------------------|---------------------------------|
D|---4---4---R-------4---4---R------|---------------------------------|
A|---------------4---------------0--|---7---7------0---5---5------0---|
E|----------------------------------|---------------------------------|


			(V)
G|----------------------------------|---------------------------------|
D|----------------------------------|---------------------------------|
A|----------------------------------|---5---5---R---0---5---5---R---0-|
E|---7---7------5---7---7---5---7---|---------------------------------|


			(W)
G|----------------------------------|---------------------------------|
D|----------------------------------|---------------------------------|
A|---4---4---R---0---4---4---R---0--|---4---R-------------------------|
E|----------------------------------|---------------------------------|



REPEAT A, B, C, B 

REPEAT G, B, C, B 

REPEAT D, B, E, F

REPEAT A, B, C, B 

REPEAT I, J, K, L, M, N

REPEAT A, B, C, B 

REPEAT G, B, C, B 

REPEAT D, B, E, F

REPEAT A, B, C, B 

REPEAT I, J, K, L, M

REPEAT O 5 TIMES 

REPEAT A, B, C, B 

REPEAT G, B, C, B 

REPEAT D, B, P, Q, R

REPEAT S, T, U, V, W 

REPEAT A, B, C, B 

REPEAT G, B, C, B 

REPEAT A, B, C, B 

REPEAT G, B, C, B 

REPEAT  C, B 

REPEAT L, B

			(X)
G|----------------------------------|---------------------------------|
D|----------------------------------|---------------------------------|
A|---5-R-------0-R------0---0---0---|---4-R---------------------------|
E|----------------------------------|-------------4-R------4---4---4--|

REPEAT B, 

REPEAT C, B 4 TIMES

REPEAT C

			(Y)
G|----------------------------------|---------------------------------|
D|----------------------------------|---------------------------------|
A|----------------------------------|---------------------------------|
E|---2-R--------2-R-----2---0---1---|---2-R-------2---2---2-R---------|


Back To Contents

Back To Main Stranglers Index