Singles (The UA Years) Singles (The UA Years)

5 Minutes





 SONG: 5 MINUTES 
 ARTIST: THE STRANGLERS 
 ALBUM: SINGLES THE U.A. YEARS
 BASSIST: JEAN JACQUES BURNEL
 TAB BY CHRIS@LOOPY0.DEMON.CO.UK

 *=HOLD NOTE
                                   (A)
G|-------------9--11--10--13--11--14--13--16--14--13--11--13--11--10---|
D|------9--11----------------------------------------------------------|
A|--11-----------------------------------------------------------------|
E|---------------------------------------------------------------------|
			

                                   (B)
G|----------------10-8-------------------10-8--------------------------|
D|---11-9----9-11------11-9---------9-11------11-9---------9-11--------|
A|--------11----------------11-9-11----------------11-9-11-------------|
E|---------------------------------------------------------------------|


                                   (C)
G|----------------------------------|----------------------------------|
D|------------------------------9---|------------------------------9---|
A|---------------------------11---11|---------------------------11---11|
E|-9-9-9-9-9-9-9-9-9-9-9-9-9--------|-9-9-9-9-9-9-9-9-9-9-9-9-9--------|


                                   (D)
G|----------------------------------|----------------------------------|
D|------------------------------9---|------------------------------9---|
A|---------------------------11---11|---------------------------11---11|
E|-9-9-9-9-9-9-9-9-9-9-9-9-9--------|-9-9-9-9-9-9-9-9-9-9-9-9-9--------|


                                   (E)
G|----------------------------------|----------------------------------|
D|------------------------------9---|------------------------------9---|
A|---------------------------11---11|---------------------------11---11|
E|-9-9-9-9-9-9-9-9-9-9-9-9-9--------|-9-9-9-9-9-9-9-9-9-9-9-9-9--------|


                                   (F)
G|----------------------------------|----------------------------------|
D|----------------------------------|----------------------------------|
A|----------------------------------|----------------------------------|
E|-4-4-4-4-4-4-4-4--7-7-7-7-7-7-6-5-|-4-4-4-4-4-4-4-4--7-7-7-7-7-7-6-5-|


                                   (G)
G|----------------------------------|----------------------------------|
D|----------------------------------|----------------------------------|
A|----------------------------------|----------------------------------|
E|-4-4-4-4-4-4-4-4--7-7-7-7-7-7-6-5-|-4-4-4-4-4-4-4-4--7-7-7-7-7-7-7-7-|


                                   (H)
G|----------------------------------|----------------------------------|
D|------------------------------9---|------------------------------9---|
A|---------------------------11---11|---------------------------11---11|
E|-9-9-9-9-9-9-9-9-9-9-9-9-9--------|-9-9-9-9-9-9-9-9-9-9-9-9-9--------|


                                   (I)
G|----------------------------------|----------------------------------|
D|------------------------------9---|------------------------------9---|
A|---------------------------11---11|---------------------------11---11|
E|-9-9-9-9-9-9-9-9-9-9-9-9-9--------|-9-9-9-9-9-9-9-9-9-9-9-9-9--------|


                                   (J)
G|----------------------------------|----------------------------------|
D|----------------------------------|----------------------------------|
A|----------------------------------|----------------------------------|
E|-4-4-4-4-4-4-4-4--7-7-7-7-7-7-6-5-|-4-4-4-4-4-4-4-4--7-7-7-7-7-7-6-5-|


                                   (K)
G|----------------------------------|----------------------------------|
D|----------------------------------|----------------------------------|
A|----------------------------------|----------------------------------|
E|-4-4-4-4-4-4-4-4--7-7-7-7-7-7-6-5-|-4-4-4-4-4-4-4-4--7-7-7-7-7-7-7-7-|


                                   (L)
G|----------------------------------|----------------------------------|
D|------------------------------9---|------------------------------9---|
A|---------------------------11---11|---------------------------11---11|
E|-9-9-9-9-9-9-9-9-9-9-9-9-9--------|-9-9-9-9-9-9-9-9-9-9-9-9-9--------|


                                   (M)
G|----------------------------------|----------------------------------|
D|------------------------------9---|----------------------------------|
A|---------------------------11---11|----------------------------------|
E|-9-9-9-9-9-9-9-9-9-9-9-9-9--------|-9-9-9-9-9-9-9-9-9-9-9-9-9-9-9-9--|


                                   (N)
G|----------------------------------|----------------------------------|
D|----------------------------------|----------------------------------|
A|-6-6-6-6-6-6-6-6--9-9-9-9-9-9-9-9-|------------------7-7-7-7-7-7-7-7-|
E|----------------------------------|-9-9-9-9-9-9-9-9------------------|


                                   (O)
G|----------------------------------|----------------------------------|
D|----------------------------------|----------------------------------|
A|------------------6-6-6-6-6-6-5-4-|------------------6-6-6-6-6-6-6-6-|
E|-7-7-7-7-7-7-7-7------------------|-7-7-7-7-7-7-7-7------------------|

 REPEAT H,I,J,K ANOTHER 2 TIMES

                                   (P)
G|----------------------------------|----------------------------------|
D|----------------------------------|----------------------------------|
A|-6-6-6-6-6-6-6-6--9-9-9-9-9-9-9-9-|------------------7-7-7-7-7-7-7-7-|
E|----------------------------------|-9-9-9-9-9-9-9-9------------------|


                                   (Q)
G|----------------------------------|----------------------------------|
D|----------------------------------|----------------------------------|
A|------------------6-6-6-6-6-6-5-4-|------------------6-6-6-6-6-6-5-4-|
E|-7-7-7-7-7-7-7-7------------------|-7-7-7-7-7-7-7-7------------------|


                                   (R)
G|----------------------------------|----------------------------------|
D|----------------------------------|----------------------------------|
A|------------------6-6-6-6-6-6-5-4-|------------------6-6-6-6-6-6-5-4-|
E|-7-7-7-7-7-7-7-7------------------|-7-7-7-7-7-7-7-7------------------|


                                   (S)
G|----------------------------------|----------------------------------|
D|----------------------------------|----------------------------------|
A|------------------6-6-6-6-6-6-5-4-|-----------------6*---------------|
E|-7-7-7-7-7-7-7-7------------------|-7-7-7-7-7-7-7-7------------------|





Back To Contents

Back To Main Stranglers Index