The Raven The Raven

The Raven



 SONG: THE RAVEN 
 ARTISIT: THE STRANGLERS 
 ALBUM: THE RAVEN
 BASSIST: JEAN JACQUES BURNEL
 TAB BY CHRIS@LOOPY0.DEMON.CO.UK
 
 R = REST
 S = SLIDE
( )= NOTES NO NOT PICK


			(A)
G|----------------------------------|---------------------------------|
D|----------------------------------|---------------------------------|
A|---0---0---7---7---0---0---7---7--|--0---0---7---7---0---0---7---7--|
E|----------------------------------|---------------------------------|


REPEAT A, A

			(B)
G|----------------------------------|---------------------------------|
D|----------------------------------|---------------------------------|
A|---0---0---7---7---0---0---7---0--|--5---R-----------5---5---5---5--|
E|----------------------------------|---------------------------------|

				
			(C)
G|----------------------------------|---------------------------------|
D|----------------------------------|---------------------------------|
A|----------------------------------|---------------------------------|
E|---5---R-----------5---5---5---5--|--3---R-----------3---3---3---3--|

			
			(D)
G|----------------------------------|---------------------------------|
D|----------------------------------|---------------------------------|
A|----------------------------------|---------------------------------|
E|---3---R-----------3---3---3---3--|--1---R-----------1---1---1---1--|


			(E)
G|----------------------------------|---------------------------------|
D|----------------------------------|---------------------------------|
A|----------------------------------|---------------------------------|
E|---1---R-----------1---1---1---1--|--3---R-----------3---3---3---3--|


			(F)			
G|----------------------------------|---------------------------------|
D|----------------------------------|---------------------------------|
A|----------------------------------|---------------------------------|
E|---3---R-----------3---3---3---3--|--5---R-----------5---5---5---5--|

							
			(G)
G|----------------------------------|---------------------------------|
D|----------------------------------|---------------------------------|
A|----------------------------------|--3---R-----------3---3---3---3--|
E|---5---R-----------5---5---5---5--|---------------------------------|


			(H)
G|----------------------------------|---------------------------------|
D|----------------------------------|---------------------------------|
A|---3---R-----------3---3---3---3--|---------------------------------|
E|----------------------------------|--3---R-----------3---3---3---3--|


			(I)
G|----------------------------------|---------------------------------|
D|----------------------------------|---------------------------------|
A|----------------------------------|---------------------------------|
E|---3---R-----------3---3---3---3--|--5---R-----------5---5---5---5--|


			(J)
G|----------------------------------|---------------------------------|
D|----------------------------------|---------------------------------|
A|----------------------------------|--5---R-----------5---5---5---5--|
E|---5---R-----------5---5---5---5--|---------------------------------|


			(K)
G|----------------------------------|---------------------------------|
D|----------------------------------|---------------------------------|
A|----------------------------------|---------------------------------|
E|---5---R-----------5---5---5---5--|--3---R-----------3---3---3---3--|

				
			(L)
G|----------------------------------|---------------------------------|
D|----------------------------------|---------------------------------|
A|----------------------------------|---------------------------------|
E|---3---R-----------3---3---3---3--|--1---R-----------1---1---1---1--|


			(M)
G|----------------------------------|---------------------------------|
D|----------------------------------|---------------------------------|
A|----------------------------------|---------------------------------|
E|---1---R-----------1---1---1---1--|--3---R-----------3---3---3---3--|	

	
			(N)
G|----------------------------------|---------------------------------|
D|----------------------------------|---------------------------------|
A|----------------------------------|--5---R-----------5---5---5---5--|
E|---5---5---5---5---5---5---5---5--|---------------------------------|


REPEAT K, L, M

			(O)
G|----------------------------------|---------------------------------|
D|----------------------------------|---------------------------------|
A|----------------------------------|--5---5---5---0------------------|
E|---5---5---5---5---5---5---5---5--|------------------3---3---3---R--|


			(P)
G|----------------------------------|---------------------------------|
D|----------------------------------|---------------------------------|
A|---5---5---5---0------------------|--5---5---5---0------------------|
E|-------------------3---3---3---R--|------------------3---3---3---R--|


REPEAT P 4 TIMES
	
			(Q)
G|----------------------------------|---------------------------------|
D|----------------------------------|---------------------------------|
A|---5---5---5---0------------------|--3---3---3---3---3---3---3---3--|
E|-------------------3---3---3---R--|---------------------------------|



			(R)
G|----------------------------------|---------------------------------|
D|----------------------------------|---------------------------------|
A|----------------------------------|--5---5---5---0------------------|
E|---5---5---5---5---5---5---5---5--|------------------3---3---3---R--|

REPEAT Q, R

REPEAT P 4 TIMES

REPEAT Q, R, Q


			(S)
G|----------------------------------|---------------------------------|
D|----------------------------------|---------------------------------|
A|----------------------------------|--5---5---5---5---3---3---3------|
E|---5---5---5---5---5---5---5---5--|------------------------------3--|


			(T)
G|----------------------------------|---------------------------------|
D|----------------------------------|---------------------------------|
A|-----------2---3---5---5---3---2--|--5---5---5---5---3---3---3------|
E|-------3--------------------------|------------------------------3--|

REPEAT T


			(U)
G|----------------------------------|---------------------------------|
D|----------------------------------|---------------------------------|
A|-----------2---3---5---5---3---2--|--1---1---1---1---1---1---1---1--|
E|-------3--------------------------|---------------------------------|


			(V)
G|----------------------------------|---------------------------------|
D|----------------------------------|---------------------------------|
A|----------------------------------|---------------------------------|
E|---1---1---1---1---1---1---1---1--|--3---3---3---3---3---3---3---3--|


			(W)
G|----------------------------------|---------------------------------|
D|----------------------------------|---------------------------------|
A|----------------------------------|--1---1---1---1---1---1---1---1--|
E|---3---3---3---3---3---3---3---3--|---------------------------------|

REPEAT V

			(X)
G|----------------------------------|---------------------------------|
D|----------------------------------|---------------------------------|
A|----------------------------------|--7---7---7---7---5---5---5------|
E|---4---4---4---4---5---5---6---6--|------------------------------5--|

	
			(Y)
G|----------------------------------|---------------------------------|
D|----------------------------------|---------------------------------|
A|-----------4---5---7---7---5---4--|--7---7---7---7---5---5---5------|
E|-------5--------------------------|------------------------------5--|

REPEAT Y

			(Z)
G|----------------------------------|---------------------------------|
D|----------------------------------|---------------------------------|
A|-----------4---5---7---7---5---4--|--3---3---3---3---3---3----------|
E|-------5--------------------------|---------------------------------|

			(AA)
G|----------------------------------|---------------------------------|
D|----------------------------------|---------------------------------|
A|---3------------------------------|---------------------------------|
E|-------3---3-------3---3---3---1--|------6---6-------6---6---6---6--|


			(AB)
G|----------------------------------|---------------------------------|
D|----------------------------------|---------------------------------|
A|----------------------------------|---------------------------------|
E|----S-1---1-------1---1-S(10)S(8)-|--R------8---R---8---8---10---8--|



			(AC)
G|----------------------------------|---------------------------------|
D|----------------------------------|---------------------------------|
A|----------------------------------|---------------------------------|
E|---3---3---3---R---3-S(6)S(10)S(6)|--R-------6---R---6---6---8---6--|


			(AD)
G|----------------------------------|---------------------------------|
D|----------------------------------|---------------------------------|
A|----------------------------------|---------------------------------|
E|--1---1---1---R---1---3---1-S-(8)-|--R-------8---R---8---8---10---8-|


			(AE)
G|----------------------------------|---------------------------------|
D|----------------------------------|---------------------------------|
A|----------------------------------|---------------------------------|
E|---3---3---3---R---3-S(6)S(10)S(6)|--R-------6---R---6---6---8---6--|



			(AF)
G|----------------------------------|---------------------------------|
D|----------------------------------|---------------------------------|
A|----------------------------------|--3---3---3---3---3---3---3---3--|
E|---1---1---1---1---1---1---1---1--|---------------------------------|



REPEAT W, V, W, V

REPEAT P 6 TIMES


			(AG)
G|----------------------------------|---------------------------------|
D|----------------------------------|---------------------------------|
A|---3---3---3---3---3---3---3---3--|---------------------------------|
E|----------------------------------|--5---5---5---5---5---5---5---5--|

REPEAT P, AG

			(AH)
G|----------------------------------|---------------------------------|
D|----------------------------------|---------------------------------|
A|---5---R-----------5---5---5---5--|---------------------------------|
E|----------------------------------|--5---R-----------5---5---5---5--|



			(AI)
G|----------------------------------|---------------------------------|
D|----------------------------------|---------------------------------|
A|----------------------------------|---------------------------------|
E|---3---R-----------3---3---3---3--|--3---R-----------3---3---3---3--|

			(AJ)
G|----------------------------------|---------------------------------|
D|----------------------------------|---------------------------------|
A|----------------------------------|---------------------------------|
E|---1---R-----------1---1---1---1--|--1---R-----------1---1---1---1--|

		
			(AK)
G|----------------------------------|---------------------------------|
D|----------------------------------|---------------------------------|
A|----------------------------------|---------------------------------|
E|---3---R-----------3---3---3---3--|--5---5---5---5---5---5---5---5--|


REPEAT AH, AI, AJ , AK UNTIL THE SONG FADES OUT

Back To Contents

Back To Main Stranglers Index