Feline Feline

All Roads Lead To Rome



 SONG: ALL ROADS LEAD TO ROME
 ARTIST: THE STRANGLERS
 ALBUM: FELINE
 BASSIST: JEAN JACQUES BURNEL
 TAB BY CHRIS@LOOPY0.DEMON.CO.UK

 
                                   (A)
G|------------------------------------9-----------------12-------------|
D|--------------9---7-------------9-----------------9------------------|
A|-----7---7------------------7-----------------7----------------------|
E|---------------------------------------------------------------------|
			

                                   (B)
G|-----------------11-----------------9--------------------------------|
D|-------------9------------------9-----------------9---7--------------|
A|---------7------------------7-----------------7----------------------|
E|---------------------------------------------------------------------|


                                   (C)
G|-------------------------7---7----|----------------------------------|
D|---------9---9---7---7------------|---------9---9---7---7------------|
A|-7---7----------------------------|-7---7-------------------9---9----|
E|----------------------------------|----------------------------------|



                                   (D)
G|-------------------------7---7----|----------------------------------|
D|---------9---9---7---7------------|---------9---9---7---7------------|
A|-7---7----------------------------|-7---7-------------------9---9----|
E|----------------------------------|----------------------------------|



                                   (E)
G|-------------------------7---7----|----------------------------------|
D|---------9---9---7---7------------|---------9---9---7---7------------|
A|-7---7----------------------------|-7---7-------------------9---9----|
E|----------------------------------|----------------------------------|



                                   (F)
G|-------------------------7---7----|----------------------------------|
D|---------9---9---7---7------------|---------9---9---7---7------------|
A|-7---7----------------------------|-7---7-------------------9---9----|
E|----------------------------------|----------------------------------|


                                   (G)
G|-------------------------7---7----|----------------------------------|
D|---------9---9---7---7------------|---------9---9---7---7------------|
A|-7---7----------------------------|-7---7-------------------9---9----|
E|----------------------------------|----------------------------------|


                                   (H)
G|----------------------------------|----------------------------------|
D|-9--9--9--9----7--7--7--7---------|--9--9---7--7---------------------|
A|-----------------------------7--7-|----------------9--9--------------|
E|----------------------------------|----------------------------------|


                                   (I)
G|----------------------------------|----------------------------------|
D|-9--9--9--9----7--7--7--7---------|---10--10---9--9------------------|
A|-----------------------------7--7-|---------------------9--9---------|
E|----------------------------------|----------------------------------|


                                   (J)
G|----------------------------------|----------------------------------|
D|-9--9--9--9----7--7--7--7---------|--9--9---7--7---------------------|
A|-----------------------------7--7-|----------------9--9--------------|
E|----------------------------------|----------------------------------|


                                   (K)
G|----------------------------------|
D|-10--10--10--10--9--9--9--9-------|
A|----------------------------------|
E|----------------------------------|


                                   (L)
G|-------------------------7---7----|----------------------------------|
D|---------9---9---7---7------------|---------9---9---7---7------------|
A|-7---7----------------------------|-7---7-------------------9---9----|
E|----------------------------------|----------------------------------|


                                   (M)
G|-------------------------7---7----|----------------------------------|
D|---------9---9---7---7------------|---------9---9---7---7------------|
A|-7---7----------------------------|-7---7-------------------9---9----|
E|----------------------------------|----------------------------------|


                                   (N)
G|-------------------------7---7----|----------------------------------|
D|---------9---9---7---7------------|---------9---9---7---7------------|
A|-7---7----------------------------|-7---7-------------------9---9----|
E|----------------------------------|----------------------------------|


                                   (O)
G|-------------------------7---7----|----------------------------------|
D|---------9---9---7---7------------|---------9---9---7---7------------|
A|-7---7----------------------------|-7---7-------------------9---9----|
E|----------------------------------|----------------------------------|


                                   (P)
G|-------------------------7---7----|----------------------------------|
D|---------9---9---7---7------------|---------9---9---7---7------------|
A|-7---7----------------------------|-7---7-------------------9---9----|
E|----------------------------------|----------------------------------|


                                   (Q)
G|----------------------------------|----------------------------------|
D|-9--9--9--9----7--7--7--7---------|--9--9---7--7---------------------|
A|-----------------------------7--7-|----------------9--9--------------|
E|----------------------------------|----------------------------------|


                                   (R)
G|----------------------------------|----------------------------------|
D|-9--9--9--9----7--7--7--7---------|---10--10---9--9------------------|
A|-----------------------------7--7-|---------------------9--9---------|
E|----------------------------------|----------------------------------|


                                   (S)
G|----------------------------------|----------------------------------|
D|-9--9--9--9----7--7--7--7---------|--9--9---7--7---------------------|
A|-----------------------------7--7-|----------------9--9--------------|
E|----------------------------------|----------------------------------|


                                   (T)
G|----------------------------------|
D|-10--10--10--10--9--9--9--9-------|
A|----------------------------------|
E|----------------------------------|


                                   (U)
G|-------------------------7---7----|----------------------------------|
D|---------9---9---7---7------------|---------9---9---7---7------------|
A|-7---7----------------------------|-7---7-------------------9---9----|
E|----------------------------------|----------------------------------|



                                   (V)
G|-------------------------7---7----|----------------------------------|
D|---------9---9---7---7------------|---------9---9---7---7------------|
A|-7---7----------------------------|-7---7-------------------9---9----|
E|----------------------------------|----------------------------------|


                                   (W)
G|-------------------------7---7----|----------------------------------|
D|---------9---9---7---7------------|---------9---9---7---7------------|
A|-7---7----------------------------|-7---7-------------------9---9----|
E|----------------------------------|----------------------------------|


                                   (X)
G|-------------------------7---7----|----------------------------------|
D|---------9---9---7---7------------|---------9---9---7---7------------|
A|-7---7----------------------------|-7---7-------------------9---9----|
E|----------------------------------|----------------------------------|


                                   (Y)
G|-------------------------7---7----|----------------------------------|
D|---------9---9---7---7------------|---------9---9---7---7------------|
A|-7---7----------------------------|-7---7-------------------9---9----|
E|----------------------------------|----------------------------------|



                                   (Z)
G|-------------------------7---7----|----------------------------------|
D|---------9---9---7---7------------|---------9---9---7---7------------|
A|-7---7----------------------------|-7---7-------------------9---9----|
E|----------------------------------|----------------------------------|


                                   (AA)
G|----------------------------------|----------------------------------|
D|----5--5--5--5--5--5--7--5--------|----------------------------------|
A|----------------------------------|----7--7--7--7--7--7--7--7--------|
E|----------------------------------|----------------------------------|


                                   (AB)
G|----------------------------------|----------------------------------|
D|----5--5--5--5--5--5--7--5--7--5--|----------------------------------|
A|----------------------------------|----7--7--7--7--7--7--7--7--------|
E|----------------------------------|----------------------------------|


                                   (AC)
G|----5--5--5--5--5--5--7--5--------|----------------------------------|
D|----------------------------------|----7--7--7--7--7--7--7--7--------|
A|----------------------------------|----------------------------------|
E|----------------------------------|----------------------------------|


                                   (AD)
G|----5--5--5--5--5--5--7--5--7--5--|----------------------------------|
D|----------------------------------|----7--7--7--7--7--7--7--7--------|
A|----------------------------------|----------------------------------|
E|----------------------------------|----------------------------------|


                                   (AE)
G|----3--3--3--3--3--3--5--3--------|----------------------------------|
D|----------------------------------|----5--5--5--5--5--5--5--5--------|
A|----------------------------------|----------------------------------|
E|----------------------------------|----------------------------------|
			

                                   (AF)
G|----3--3--3--3--3--3--5--3--5--3--|----------------------------------|
D|----------------------------------|----5--5--5--5--5--5--5--5--------|
A|----------------------------------|----------------------------------|
E|----------------------------------|----------------------------------|


                                   (AG)
G|----------------------------------|----------------------------------|
D|----------------------------------|----------------------------------|
A|-5-5-5-5-5-5-5-5--6-6-6-6-6-6-6-6-|-7-7-7-7-7-7-7-7--8-8-8-8-8-8-8-8-|
E|----------------------------------|----------------------------------|


                                   (AH)
G|----------------------------------|----------------------------------|
D|----------------------------------|----------------------------------|
A|-5-5-5-5-5-5-5-5--6-6-6-6-6-6-6-6-|-7-7-7-7-7-7-7-7--8-8-8-8-8-8-8-8-|
E|----------------------------------|----------------------------------|


                                   (AI)
G|-------------------------7---7----|----------------------------------|
D|---------9---9---7---7------------|---------9---9---7---7------------|
A|-7---7----------------------------|-7---7-------------------9---9----|
E|----------------------------------|----------------------------------|



                                   (AJ)
G|-------------------------7---7----|----------------------------------|
D|---------9---9---7---7------------|---------9---9---7---7------------|
A|-7---7----------------------------|-7---7-------------------9---9----|
E|----------------------------------|----------------------------------|


                                   (AK)
G|-------------------------7---7----|----------------------------------|
D|---------9---9---7---7------------|---------9---9---7---7------------|
A|-7---7----------------------------|-7---7-------------------9---9----|
E|----------------------------------|----------------------------------|


                                   (AL)
G|-------------------------7---7----|----------------------------------|
D|---------9---9---7---7------------|---------9---9---7---7------------|
A|-7---7----------------------------|-7---7-------------------9---9----|
E|----------------------------------|----------------------------------|


                                   (AM)
G|-------------------------7---7----|----------------------------------|
D|---------9---9---7---7------------|---------9---9---7---7------------|
A|-7---7----------------------------|-7---7-------------------9---9----|
E|----------------------------------|----------------------------------|


                                   (AN)
G|----------------------------------|----------------------------------|
D|-9--9--9--9----7--7--7--7---------|--9--9---7--7---------------------|
A|-----------------------------7--7-|----------------9--9--------------|
E|----------------------------------|----------------------------------|


                                   (AO)
G|----------------------------------|----------------------------------|
D|-9--9--9--9----7--7--7--7---------|---10--10---9--9------------------|
A|-----------------------------7--7-|---------------------9--9---------|
E|----------------------------------|----------------------------------|



                                   (AP)
G|----------------------------------|----------------------------------|
D|-9--9--9--9----7--7--7--7---------|--9--9---7--7---------------------|
A|-----------------------------7--7-|----------------9--9--------------|
E|----------------------------------|----------------------------------|



                                   (AQ)
G|----------------------------------|
D|-10--10--10--10--9--9--9--9-------|
A|-------------------------------7--|
E|----------------------------------|


                                   (AR)
G|----------------------------------|----------------------------------|
D|--9--8--------7--6-------5--4-----|--9--8-------7--6-------5--4------|
A|--------5-----------3-------------|--------5----------3--------------|
E|----------------------------------|----------------------------------|


                                   (AS)
G|----------------------------------|----------------------------------|
D|--9--8--------7--6-------5--4-----|--9--8-------7--6-----------------|
A|--------5-----------3-------------|--------5----------3--------------|
E|----------------------------------|----------------------------------|


                                   (AT)
G|-------------------------7---7----|----------------------------------|
D|---------9---9---7---7------------|---------9---9---7---7------------|
A|-7---7----------------------------|-7---7-------------------9---9----|
E|----------------------------------|----------------------------------|

 REPEAT AT UNTIL THE SONG FADES OUT


Back To Contents

Back To Main Stranglers Index