Aural Sculpture Aural Sculpture

Skin Deep



 SONG: SKIN DEEP 
 ARTIST: THE STRANGLERS
 ALBUM: AURAL SCULPTURE
 BASSIST: JEAN JACQUES BURNEL
 TAB BY CHRIS@LOOPY0.DEMON.CO.UK

 BASS COMES IN AT 48 SECONDS

 S/= SLIDE UP

 S\= SLIDE DOWN
                                   (A)
G|----------------------------------|----------------------------------|
D|----------------------------------|----------------------------------|
A|----------------------------------|----------------------------------|
E|--5----5--5----5-5--5-5-0--3--0---|--5----5--5----5-5--5-5-0--3--0---|


                                   (B)
G|----------------------------------|----------------------------------|
D|----------------------------------|----------------------------------|
A|----------------------------------|----------------------------------|
E|--5----5--5----5-5--5-5-0--3--0---|--5----5--5----5-5--5-5-HOLD------|


                                   (C)
G|----------------------------------|----------------------------------|
D|----------------------------------|----------------------------------|
A|----------------5---5--5----------|----------------------------------|
E|----0---0--0----------------------|--5----5--5----5-5--5-5--5-5-3----|


                                   (D)
G|----------------------------------|----------------------------------|
D|----------------------------------|----------------------------------|
A|---------------5----5--5----------|----------------------------------|
E|----0--0--0-----------------------|--5----5--5----5-5--5-5-HOLD------|


                                   (E)
G|----------------------------------|----------------------------------|
D|----------------------------------|----------------------------------|
A|-------------------------5---5--5-|----------------------------------|
E|-5---5--5----0---0--0-------------|-5----5--5----5-5--5-5-HOLD-------|


                                   (F)
G|----------------------------------|----------------------------------|
D|----------------------------------|----------------------------------|
A|-------------------------5---5--5-|----------------------------------|
E|-5---5--5----0---0--0-------------|-5----5--5----5-5--5-5-HOLD-------|


                                   (G)
G|----------------------------------|----------------------------------|
D|----------------------------------|----------------------------------|
A|----------------------------------|----------------------------------|
E|----0---0--0--3-S/--12--12-S\--7--|----0---0--0--3-S/--12--12-S\--7--|


                                   (H)
G|----------------------------------|----------------------------------|
D|----------------------------------|----------------------------------|
A|----------------------------------|----------------------------------|
E|----0---0--0--3-S/--12--12-S\--7--|--5--5-5--5-5--5-5--5-5--5-5-0-3-0-|


                                   (I)
G|----------------------------------|----------------------------------|
D|----------------------------------|----------------------------------|
A|----------------------------------|----------------------------------|
E|--5-5-5-5-5-5-5-5-5-5-5-5-5-0-3-0-|--5-5-5-5-5-5-5-5-5-5-5-5-5-0-3-0-|


                                   (J)
G|----------------------------------|----------------------------------|
D|----------------------------------|----------------------------------|
A|----------------------------------|----------------------------------|
E|--5-5-5-5-5-5-5-5-5-5-5-5-5-0-3-0-|--5-5-5-5-5-5-5-5-5-5-5-5-5-0-3-0-|


                                   (K)
G|----------------------------------|----------------------------------|
D|----------------------------------|----------------------------------|
A|----------------------------------|------------------5-5-5-5-5-5-5-5-|
E|--5-5-5-5-5-5-5-5-5-5-5-5-5-5-5-5-|-0-0-0-0-0-0-0-0------------------|


                                   (L)
G|----------------------------------|----------------------------------|
D|----------------------------------|----------------------------------|
A|----------------------------------|------------------5-5-5-5-5-5-5-5-|
E|-5-5-5-5-5-5-5-5-5-5-5-5-5-5-5-5--|-0-0-0-0-0-0-0-0------------------|


                                   (M)
G|----------------------------------|----------------------------------|
D|----------------------------------|----------------------------------|
A|----------------------------------|----------------------------------|
E|-5-5-5-5-5-5-5-5-5-5-5-5-5-5-5-5--|-5-5-5-5-5-5-5-5--0-0-0-0-0-0-0-0-|
			

                                   (N)
G|----------------------------------|----------------------------------|
D|----------------------------------|----------------------------------|
A|-5-5-5-5-5-5-5-5------------------|----------------------------------|
E|------------------5-5-5-5-5-5-5-5-|-5-5-5-5-5-5-5-5--5-5-5-5-5-5-5-5-|


                                   (O)
G|----------------------------------|----------------------------------|
D|----------------------------------|----------------------------------|
A|------------------5-5-5-5-5-5-5-5-|----------------------------------|
E|-0-0-0-0-0-0-0-0------------------|-5-5-5-5-5-5-5-5-5-5-5-5-5-5-5-5-5|


                                   (P)
G|----------------------------------|----------------------------------|
D|----------------------------------|----------------------------------|
A|----------------------------------|----------------------------------|
E|----0---0--0--3-S/--12--12-S\--7--|----0---0--0--3-S/--12--12-S\--7--|


                                   (Q)
G|----------------------------------|----------------------------------|
D|----------------------------------|----------------------------------|
A|----------------------------------|----------------------------------|
E|----0---0--0--3-S/--12--12-S\--7--|-5---5---5---5---5---5---5---5----|


                                   (R)
G|----------------------------------|----------------------------------|
D|----------------------------------|----------------------------------|
A|----------------------------------|----------------------------------|
E|---5---5---5---5---5---5---5---5--|----5---5---5---5---5---5---5---5-|


                                   (S)
G|----------------------------------|----------------------------------|
D|----------------------------------|----------------------------------|
A|----------------------------------|----------------------------------|
E|----0---0--0--3-S/--12--12-S\--7--|----0---0--0--3-S/--12--12-S\--7--|


                                   (T)
G|----------------------------------|----------------------------------|
D|----------------------------------|----------------------------------|
A|----------------------------------|----------------------------------|
E|----0---0--0--3-S/--12--12-S\--7--|-5---5---5---5---5---5---5---5----|


                                   (U)
G|----------------------------------|----------------------------------|
D|----------------------------------|----------------------------------|
A|----------------------------------|----------------------------------|
E|---5---5---5---5---5---5---5---5--|----5---5---5---5---5---0---3---0-|


                                   (V)
G|----------------------------------|-----------------------------------|
D|----------------------------------|-----------------------------------|
A|----------------------------------|-----------------------------------|
E|-5---5---5---5---5---5---5---5-S/-|---12--12--12--12--12--12--12--12--|

 REPEAT V UNTIL THE SONG FADES OUT



Back To Contents

Back To Main Stranglers Index