Singles (The UA Years) Singles (The UA Years)

Strange Little Girl



 SONG: STRANGE LITTLE GIRL
 ARTIST: THE STRANGLERS 
 ALBUM: SINGLES THE U.A. YEARS
 BASSIST: JEAN JACQUES BURNEL
 TAB BY: johnrosk@btinternet.com


			(A)
G|----------------------------------|---------------------------------|
D|---12-----------------------------|--12-----------------------------|
A|----------------------------------|---------------------------------|
E|----------------------------------|---------------------------------|

REPEAT A

			(B)
G|----------------------------------|--10-----------------------------|
D|---12--------------R--------------|-----------------10--------------|
A|----------------------------------|---------------------------------|
E|----------------------------------|---------------------------------|


			(C)
G|----------------------------------|---------------------------------|
D|----------------------------------|---------------------------------|
A|--10----------------R-------------|--10-----------------R-----------|
E|----------------------------------|---------------------------------|

							
			(D)
G|----------------------------------|---------------------------------|
D|----------------------------------|--3------------------------------|
A|---5------------------------------|-----------------3---------------|
E|----------------------------------|---------------------------------|


			(E)
G|----------------------------------|---------------------------------|
D|----------------------------------|---------------------------------|
A|----------------------------------|---------------------------------|
E|---3------------------------------|--3------------------------------|


			(F)
G|----------------------------------|---------------------------------|
D|----------------------------------|---------------------------------|
A|----------------------------------|---------------------------------|
E|---8----------8---7-----------7---|--5-----------5---3--------------|


			(G)
G|----------------------------------|---------------------------------|
D|----------------------------------|---------------------------------|
A|---8----------8---7-----------7---|--5-----------5---3--------------|
E|----------------------------------|---------------------------------|

			(H)
G|----------------------------------|---------------------------------|
D|----------------------------------|---------------------------------|
A|---7---------7---5----------------|--3-----------3---2--------------|
E|----------------------------------|---------------------------------|

			(I)
G|----------------------------------|---------------------------------|
D|----------------------------------|---------------------------------|
A|---10-------10---8----------------|--7-----------7---5--------------|
E|----------------------------------|---------------------------------|


			(J)
G|----------------------------------|---------------------------------|
D|----------------------------------|---------------------------------|
A|--12--------12---10---------------|--8------------8---7-------------|
E|----------------------------------|---------------------------------|


			(K)
G|----------------------------------|---------------------------------|
D|----------------------------------|--3-----------3------------------|
A|--5----------5---5----------------|------------------3----------3---|
E|----------------------------------|---------------------------------|


			(L)
G|----------------------------------|---------------------------------|
D|----------------------------------|--------------0---3---2---0------|
A|----------------------------------|------------------------------3--|
E|---3----------3---3---3---1---2---|--3------------------------------|


			(M)
G|----------------------------------|---------------------------------|
D|------------------------------2---|--3------------3-----------------|
A|--5-----------5---5---------------|-------------------3---------3---|
E|----------------------------------|---------------------------------|


			(N)
G|----------------------------------|---------------------------------|
D|----------------------------------|---------------------------------|
A|----------------------------------|--------------------------0---2--|
E|---3----------3---3---3---1---2---|--3-----------3---3---3----------|


			(O)
G|----------------------------------|---------------------------------|
D|----------------------------------|---------------------------------|
A|--3----------3---2------------2---|--0----------0-------------------|
E|----------------------------------|-----------------3---------------|


			(P)
G|----------------------------------|---------------------------------|
D|----------------------------------|---------------------------------|
A|---8----------8---7-----------7---|--5-----------5---3--------------|
E|----------------------------------|---------------------------------|

REPEAT H, I

			(Q)
G|-----------------------------------|--------------------------------|
D|-------2---5-----------------------|-----------------3---2---0------|
A|---3------------------2----5-------|-----------------------------3--|
E|---------------3---------------3---|--1---1---1---1-----------------|


REPEAT Q

			(R)
G|-----------------------------------|--------------------------------|
D|-------2---5-----------------------|--------------------------------|
A|---3------------------2----5-------|--------------------------------|
E|---------------3---------------3---|--5---5---5---5---9---9---9---9-|


			(S)
G|----------------------------------|---------------------------------|
D|----------------------------------|---------------------------------|
A|----------------------------------|--5------------------------------|
E|--12--12--12--12--17--17--17--17--|---------------------------------|

		
			(T)
G|----------------------------------|---------------------------------|
D|----------------------------------|---------------------------------|
A|--3--------------2----------------|---------------------------------|
E|----------------------------------|--3------------------------------|


			(U)
G|----------------------------------|---------------------------------|
D|----------------------------------|---------------------------------|
A|----------------------------------|--5------------------------------|
E|--3-------------------------------|---------------------------------|

REPEAT T, U, T, U, T  

			(V)
G|----------------------------------|---------------------------------|
D|----------------------------------|---------------------------------|
A|----------------------------------|--3---------3---2-------------2--|
E|--3-------------------------------|---------------------------------|


			(W)
G|----------------------------------|---------------------------------|
D|----------------------------------|---------------------------------|
A|--0---------0---------------------|--8---------8---7-------------7--|
E|----------------3--------------3--|---------------------------------|


			(X)
G|----------------------------------|---------------------------------|
D|----------------------------------|---------------------------------|
A|--5---------5--3------------------|--7---------7---5----------------|
E|----------------------------------|---------------------------------|


			(Y)
G|----------------------------------|---------------------------------|
D|----------------------------------|---------------------------------|
A|--3---------3---2-----------------|--10---------10---8--------------|
E|----------------------------------|---------------------------------|


			(Z)
G|----------------------------------|---------------------------------|
D|----------------------------------|------2---5----------------------|
A|--7---------7---5-----------------|--3-------------------2---5---R--|
E|----------------------------------|--------------3------------------|


			(AA)
G|----------------------------------|---------------------------------|
D|-------------------3---2---0------|------2---5----------------------|
A|-------------------------------3--|--3-------------------2---5---R--|
E|---1---1---1---1------------------|--------------3------------------|

REPEAT AA

			(AB)
G|----------------------------------|---------------------------------|
D|----------------------------------|---------------------------------|
A|----------------------------------|---------------------------------|
E|---5---5---5---5---9---9---9---9--|-12--12--12--12--17--17--17--17--|


			(AC)
G|-----------------------------------|--------------------------------|
D|-------2---5-----------------------|-----------------3---2---0------|
A|---3------------------2----5---R---|-----------------------------3--|
E|---------------3-------------------|--1---1---1---1-----------------|

REPEAT AC

			(AD)
G|-----------------------------------|--------------------------------|
D|-------2---5-----------------------|--------------------------------|
A|---3------------------2----5---R---|--------------------------------|
E|---------------3-------------------|--3---R---5---------------------|
 
 

Back To Contents

Back To Main Stranglers Index