Black And White Black And White

Threatened



 
 SONG: THREATENED
 ARTIST: THE STRANGLERS
 ALBUM: BLACK AND WHITE
 BASSIST: JEAN JACQUES BURNEL
 TAB BY CHRIS@LOOPY0.DEMON.CO.UK

 
                                   (A)
G|----------------------------------|----------------------------------|
D|----------------------------------|----------------------------------|
A|----4--5--7--10--9--8--7--6-------|----4--5--7--10--9--8--7--6-------|
E|----------------------------------|----------------------------------|


                                   (B)
G|----------------------------------|----------------------------------|
D|----------------------------------|----------------------------------|
A|----4--5--7--10--9--8--7--6-------|----4--5--7--10--9--8--7--6-------|
E|----------------------------------|----------------------------------|


                                   (C)
G|----------------------------------|----------------------------------|
D|----------------------------------|----------------------------------|
A|-5-5-5----------------------------|-5-5-5----------------------------|
E|--------2--2-2-2--3-3-3--1--1-1-1-|--------2--2-2-2--3-3-3--1--1-1-1-|


                                   (D)
G|----------------------------------|----------------------------------|
D|----------------------------------|----------------------------------|
A|-5-5-5----------------------------|-5-5-5----------------------------|
E|--------2--2-2-2--3-3-3--1--1-1-1-|--------2--2-2-2--3-3-3--1--1-1-1-|


                                   (E)
G|----------------------------------|----------------------------------|
D|----------------------------------|----------------------------------|
A|-5-5-5----------------------------|-5-5-5----------------------------|
E|--------2--2-2-2--3-3-3--4--4-4-4-|--------2--2-2-2--3-3-3--4--4-4-4-|


                                   (F)
G|----------------------------------|----------------------------------|
D|----------------------------------|----------------------------------|
A|----------------------------------|----------------------------------|
E|-5-5-5-5-5-5-5-0--3-3-3-3-3-3-3-0-|-5-5-5-5-5-5-5-0--3-3-3-3-3-3-3-0-|


                                   (G)
G|----------------------------------|----------------------------------|
D|----------------------------------|----------------------------------|
A|----------------------------------|----------------------------------|
E|-5-5-5-5-5-5-5-0--3-3-3-3-3-3-3-0-|-5-5-5-5-5-5-5-0--3-3-3-3-3-3-3-0-|


                                   (H)
G|----------------------------------|----------------------------------|
D|----------------------------------|----------------------------------|
A|----------------------------------|----------------------------------|
E|-5-5-5-5-5-5-5-0--3-3-3-3-3-3-3-0-|-5-5-5-5-5-5-5-0--3-3-3-3-3-------|


                                   (I)
G|----------------------------------|----------------------------------|
D|----------------------------------|----------------------------------|
A|----------------------------------|----4--2--------------------------|
E|----0--3--5--4-S\-----------------|----------5--3-s-\----------------|


                                   (J)
G|----------------------------------|----7--6--------------------------|
D|----5-5--7--5---------------------|---------9--7--6------------------|
A|---------------7--5---------------|-------------------9--7--6--------|
E|---------------------7-S\---------|----------------------------------|


                                   (K)
G|----------------------------------|----------------------------------|
D|----------------------------------|----------------------------------|
A|-5-5-5----------------------------|-5-5-5----------------------------|
E|--------2--2-2-2--3-3-3--1--1-1-1-|--------2--2-2-2--3-3-3--1--1-1-1-|


                                   (L)
G|----------------------------------|----------------------------------|
D|----------------------------------|----------------------------------|
A|-5-5-5----------------------------|-5-5-5----------------------------|
E|--------2--2-2-2--3-3-3--4--4-4-4-|--------2--2-2-2--3-3-3--4--4-4-4-|


                                   (M)
G|----------------------------------|----------------------------------|
D|----------------------------------|----------------------------------|
A|----------------------------------|----------------------------------|
E|-5-5-5-5-5-5-5-0--3-3-3-3-3-3-3-0-|-5-5-5-5-5-5-5-0--3-3-3-3-3-3-3-0-|
			

                                   (N)
G|----------------------------------|----------------------------------|
D|----------------------------------|----------------------------------|
A|----------------------------------|----------------------------------|
E|-5-5-5-5-5-5-5-0--3-3-3-3-3-3-3-0-|-5-5-5-5-5-5-5-0--3-3-3-3-3-3-3-0-|


                                   (O)
G|----------------------------------|----------------------------------|
D|----------------------------------|----------------------------------|
A|----------------------------------|----------------------------------|
E|-5-5-5-5-5-5-5-0--3-3-3-3-3-3-3-0-|-5-5-5-5-5-5-5-0--3-3-3-3-3-------|


                                   (P)
G|----------------------------------|----------------------------------|
D|----------------------------------|----------------------------------|
A|----------------------------------|----------------------------------|
E|----------------------------------|----------------------------------|


                                   (Q)
G|----------------------------------|----------------------------------|
D|----------------------------------|----------------------------------|
A|----------------------------------|----------------------------------|
E|----------------------------------|----------------------------------|


                                   (R)
G|----------------------------------|----------------------------------|
D|----------------------------------|----------------------------------|
A|-5-5-5----------------------------|-5-5-5----------------------------|
E|--------2--2-2-2--3-3-3--1--1-1-1-|--------2--2-2-2--3-3-3--1--1-1-1-|


                                   (S)
G|----------------------------------|----------------------------------|
D|----------------------------------|----------------------------------|
A|-5-5-5----------------------------|-5-5-5----------------------------|
E|--------2--2-2-2--3-3-3--4--4-4-4-|--------2--2-2-2--3-3-3--4--4-4-4-|


                                   (T)
G|----------------------------------|----------------------------------|
D|----------------------------------|----------------------------------|
A|-5-5-5----------------------------|-5-5-5----------------------------|
E|--------2--2-2-2--3-3-3--4--4-4-4-|--------2--2-2-2--3-3-3--4--------|


                                   (U)
G|----------------------------------|----------------------------------|
D|----------------------------------|----------------------------------|
A|----------------------------------|----------------------------------|
E|----------------------------------|----------------------------------|


                                   (V)
G|----------------------------------|----------------------------------|
D|----------------------------------|----------------------------------|
A|-5-5-5----------------------------|-5-5-5----------------------------|
E|--------2--2-2-2--3-3-3--4--4-4-4-|--------2--2-2-2--3-3-3--4--4-4-4-|


                                   (W)
G|----------------------------------|----------------------------------|
D|----------------------------------|----------------------------------|
A|----------------------------------|----------------------------------|
E|-5-5-5-5-5-5-5-0--3-3-3-3-3-3-3-0-|-5-5-5-5-5-5-5-0--3-3-3-3-3-3-3-0-|


                                   (X)
G|----------------------------------|----------------------------------|
D|----------------------------------|----------------------------------|
A|----------------------------------|----------------------------------|
E|-5-5-5-5-5-5-5-0--3-3-3-3-3-3-3-0-|-5-5-5-5-5-5-5-0--3-3-3-3-3-3-3-0-|


                                   (Y)
G|----------------------------------|----------------------------------|
D|----------------------------------|----------------------------------|
A|----------------------------------|----------------------------------|
E|-5-5-7-5-7-5-7-0--3-3-5-3-5-3-5-0-|-5-5-7-5-7-5-7-0--3-3-5-3-5-3-5-0-|


                                   (Z)
G|----------------------------------|----------------------------------|
D|----------------------------------|----------------------------------|
A|----------------------------------|----------------------------------|
E|-5-5-7-5-7-5-7-0--3-3-5-3-5-3-5-0-|-5-5-7-5-7-5-7-0--3-3-------------|




Back To Contents

Back To Main Stranglers Index