Nice IN Nice Nice IN Nice

Was It You?




 
 SONG: WAS IT YOU?
 ARTIST: THE STRANGLERS
 ALBUM: DREAMTIME
 BASSIST: JEAN JACQUES BURNEL
 TAB BY CHRIS@LOOPY0.DEMON.CO.UK

 R=REST

 S/=SLIDE UP

 S\=SLIDE DOWN
                                   (A)
G|----------------------------------|----------------------------------|
D|----------------------------------|----------------------------------|
A|----------------------------------|----------------------------------|
E|----------------------------------|-----------------------------12S\-|


                                   (B)
G|----------------------------------|----------------------------------|
D|----------------------------------|----------------------------------|
A|----------5-4--0-4-2--0-2-2-------|----------5-4--0-4-2--0-2-2-------|
E|-0-0--0-----------------------3---|-0-0--0-----------------------3---|


                                   (C)
G|----------------------------------|----------------------------------|
D|----------------------------------|----------------------------------|
A|----------5-4--0-4-2--0-2-2-------|----------5-4--0-4-2--0-2-2-------|
E|-0-0--0-----------------------3---|-0-0--0-----------------------3---|


                                   (D)
G|----------------------------------|----------------------------------|
D|----------------------------------|----------------------------------|
A|----------5-4--0-4-2--0-2-2-------|----------5-4--0-4-2--0-2-2-------|
E|-0-0--0-----------------------3---|-0-0--0-----------------------3---|


                                   (E)
G|----------------------------------|----------------------------------|
D|----------------------------------|-5-4-5-4-5-4-5-4--9-8-9-8-9-8-9-8-|
A|-5-5-5-0-5-5-5-0--7-7-7-0-7-7-7-0-|----------------------------------|
E|----------------------------------|----------------------------------|


                                   (F)
G|----------------------------------|----------------------------------|
D|----------------------------------|----------------------------------|
A|----------5-4--0-4-2--0-2-2-------|----------5-4--0-4-2--0-2-2-------|
E|-0-0--0-----------------------3---|-0-0--0-----------------------3---|


                                   (G)
G|----------------------------------|----------------------------------|
D|----------------------------------|----------------------------------|
A|----------5-4--0-4-2--0-2-2-------|----------5-4--0-4-2--0-2-2-------|
E|-0-0--0-----------------------3---|-0-0--0-----------------------3---|


                                   (H)
G|----------------------------------|----------------------------------|
D|----------------------------------|----------------------------------|
A|----------5-4--0-4-2--0-2-2-------|----------5-4--0-4-2--0-2-2-------|
E|-0-0--0-----------------------3---|-0-0--0-----------------------3---|


                                   (I)
G|----------------------------------|----------------------------------|
D|----------------------------------|-5-4-5-4-5-4-5-4--9-8-9-8-9-8-9-8-|
A|-5-5-5-0-5-5-5-0--7-7-7-0-7-7-7-0-|----------------------------------|
E|----------------------------------|----------------------------------|


                                   (J)
G|----------------------------------|----------------------------------|
D|-2-2------------------------------|-2-2------------------------------|
A|-----3------3S/-5--5-5-7-5--------|-----3------3S/-5--5-5-7-5--------|
E|-------3-5------------------8-7-5-|-------3-5------------------8-7-5-|


                                   (K)
G|----------------------------------|----------------------------------|
D|-4-4------------------------------|-4-4------------------------------|
A|-----5------5S/-7--7-7-9-7--------|-----5----------------------------|
E|-------5-7-----------------10-9-7-|--------5-2-R------7--7--7--5--3--|


                                   (L)
G|----------------------------------|----------------------------------|
D|----------------------------------|----------------------------------|
A|----------5-4--0-4-2--0-2-2-------|----------5-4--0-4-2--0-2-2-------|
E|-0-0--0-----------------------3---|-0-0--0-----------------------3---|


                                   (M)
G|----------------------------------|----------------------------------|
D|----------------------------------|----------------------------------|
A|----------5-4--0-4-2--0-2-2-------|----------5-4--0-4-2--0-2-2-------|
E|-0-0--0-----------------------3---|-0-0--0-----------------------3---|


                                   (N)
G|----------------------------------|----------------------------------|
D|----------------------------------|----------------------------------|
A|----------5-4--0-4-2--0-2-2-------|----------5-4--0-4-2--0-2-2-------|
E|-0-0--0-----------------------3---|-0-0--0-----------------------3---|


                                   (O)
G|----------------------------------|----------------------------------|
D|----------------------------------|-5-4-5-4-5-4-5-4--9-8-9-8-9-8-9-8-|
A|-5-5-5-0-5-5-5-0--7-7-7-0-7-7-7-0-|----------------------------------|
E|----------------------------------|----------------------------------|


                                   (P)
G|----------------------------------|----------------------------------|
D|-2-2------------------------------|-2-2------------------------------|
A|-----3------3S/-5--5-5-7-5--------|-----3------3S/-5--5-5-7-5--------|
E|-------3-5------------------8-7-5-|-------3-5------------------8-7-5-|


                                   (Q)
G|----------------------------------|----------------------------------|
D|-4-4------------------------------|-4-4------------------------------|
A|-----5------5S/-7--7-7-9-7--------|-----5----------------------------|
E|-------5-7-----------------10-9-7-|--------5-2-R------7--7--7--5--3--|

  
                                   (R)
G|----------------------------------|----------------------------------|
D|----------------------------------|----------------------------------|
A|----------5-4--0-4-2--0-2-2-------|----------5-4--0-4-2--0-2-2-------|
E|-0-0--0-----------------------3---|-0-0--0-----------------------3---|                                  


 REPEAT (R) ANOTHER 6 TIMES
                                   (S)
G|----------------------------------|----------------------------------|
D|----------------------------------|-5-4-5-4-5-4-5-4--9-8-9-8-9-8-9-8-|
A|-5-5-5-0-5-5-5-0--7-7-7-0-7-7-7-0-|----------------------------------|
E|----------------------------------|----------------------------------|


                                   (T)
G|----------------------------------|----------------------------------|
D|----------------------------------|----------------------------------|
A|----------5-4--0-4-2--0-2-2-------|----------5-4--0-4-2--0-2-2-------|
E|-0-0--0-----------------------3---|-0-0--0-----------------------3---|


 REPEAT (T) UNTIL THE SONG FADES OUT



Back To Contents

Back To Main Stranglers Index