Singles (The UA Years) Singles (The UA Years)

Who Wants The World



 
 
 SONG: WHO WANTS THE WORLD?
 ARTIST: THE STRANGLERS 
 ALBUM: SINGLES THE U.A. YEARS
 BASSIST: JEAN JACQUES BURNEL
 TAB BY CHRIS@LOOPY0.DEMON.CO.UK

 (0)=DO NOT PICK

  
                                   (A)
G|----------------------------------|----------------------------------|
D|----------------------------------|----------------------------------|
A|----------------------------------|----------------------------------|
E|-----0--0--0----0-0--0-0----------|-----2--2--2----2-2--2-2----------|
			

                                   (B)
G|----------------------------------|----------------------------------|
D|----------------------------------|----------------------------------|
A|----------------------------------|----------------------------------|
E|-----0--0--0----0-0--0-0----------|-----2--2--2-----2-2--2-2---------|


                                   (C)
G|----------------------------------|----------------------------------|
D|----------------------------------|-4--4-----------------------------|
A|--4--5----4--5----4--5----4--5----|--------4--4----------------------|
E|----------------------------------|-------------------2--2--0--1-----|


                                   (D)
G|----------------------------------|----------------------------------|
D|----------------------------------|-4--4-----------------------------|
A|----------------------------------|--------4--4----------------------|
E|-----2--2--0--1----2--2--0--1-----|-------------------2--2--0--1-----|


                                   (E)
G|----------------------------------|----------------------------------|
D|----------------------------------|-4--4-----------------------------|
A|----------------------------------|--------4--4----------------------|
E|-----2--2--0--1----2--2--0--1-----|-------------------2--2--0--1-----|


                                   (F)
G|----------------------------------|----------------------------------|
D|----------------------------------|-4--4-----------------------------|
A|----------------------------------|--------4--4----------------------|
E|-----2--2--0--1----2--2--0--1-----|-------------------2--2--0--1-----|


                                   (G)
G|----------------------------------|----------------------------------|
D|----------------------------------|----------------------------------|
A|----------------------------------|----------------------------------|
E|-----2--2--0--1----2--2--0--1-----|--0--0----0--0-----0--0----0--0---|


                                   (H)
G|----------------------------------|----------------------------------|
D|----------------------------------|----------------------------------|
A|----------------------------------|----------------------------------|
E|--2--2----2--2-----2--2----2--2---|--0--0----0--0-----0--0----0--0---|


                                   (I)                                
G|----------------------------------|----------------------------------|
D|----------------------------------|----------------------------------|
A|----------------------------------|----------------------------------|
E|--2--2----2--2-----2--2----2--2---|--0--0----0--0-----0--0----0--0---|


                                   (J)
G|----------------------------------|----------------------------------|
D|----------------------------------|----------------------------------|
A|----------------------------------|----------------------------------|
E|--2--2----2--2-----2--2----2--2---|--1--0----------------------------|


                                   (K)
G|----------------------------------|----------------------------------|
D|----------------------------------|----------------------------------|
A|----------------------------------|----------------------------------|
E|--2-------------------------------|--0-------------------------------|


                                   (L)
G|----------------------------------|----------------------------------|
D|----------------------------------|----------------------------------|
A|----------------------------------|-----------------4--5--4--5--4----|
E|--2-------------------------------|----------------------------------|


                                   (M)
G|----------------------------------|----------------------------------|
D|---4---2--------------------------|---4---2--------------------------|
A|-----------4---2---(0)------------|-----------4---2---(0)------------|
E|-------------------------2---2----|-------------------------0---0----|


                                   (N)
G|----------------------------------|----------------------------------|
D|---4---2--------------------------|---4---2--------------------------|
A|-----------4---2---(0)------------|-----------4---2---(0)------------|
E|-------------------------2---2----|-------------------------0---0----|


                                   (0)
G|----------------------------------|----------------------------------|
D|-4--4-----------------------------|----------------------------------|
A|--------4--4----------------------|----------------------------------|
E|-------------------2--2--0--1-----|-----2--2--0--1----2--2--0--1-----|


                                   (P)
G|----------------------------------|----------------------------------|
D|-4--4-----------------------------|----------------------------------|
A|--------4--4----------------------|----------------------------------|
E|-------------------2--2--0--1-----|-----2--2--0--1----2--2--0--1-----|


                                   (Q)
G|----------------------------------|----------------------------------|
D|-4--4-----------------------------|----------------------------------|
A|--------4--4----------------------|----------------------------------|
E|-------------------2--2--0--1-----|-----2--2--0--1----2--2--0--1-----|


                                   (R)
G|----------------------------------|----------------------------------|
D|-4--4-----------------------------|----------------------------------|
A|--------4--4----------------------|----------------------------------|
E|-------------------2--2--0--1-----|-----2--2--0--1----2--2--0--1-----|


                                   (S)
G|----------------------------------|----------------------------------|
D|----------------------------------|----------------------------------|
A|----------------------------------|----------------------------------|
E|--0--0----0--0-----0--0----0--0---|--2--2----2--2-----2--2----2--2---|


                                   (T)
G|----------------------------------|----------------------------------|
D|----------------------------------|----------------------------------|
A|----------------------------------|----------------------------------|
E|--0--0----0--0-----0--0----0--0---|--2--2----2--2-----2--2----2--2---|


                                   (U)
G|----------------------------------|----------------------------------|
D|----------------------------------|----------------------------------|
A|----------------------------------|----------------------------------|
E|--0--0----0--0-----0--0----0--0---|--2--2----2--2-----2--2----2--2---|


                                   (V)
G|----------------------------------|----------------------------------|
D|----------------------------------|----------------------------------|
A|----------------------------------|----------------------------------|
E|--1--0----------------------------|--2-------------------------------|


                                   (W)
G|----------------------------------|----------------------------------|
D|----------------------------------|----------------------------------|
A|----------------------------------|-------------------4--5--4--5--4--|
E|--0-------------------------------|--2-------------------------------|


                                   (X)
G|----------------------------------|----------------------------------|
D|---4---2--------------------------|---4---2--------------------------|
A|-----------4---2---(0)------------|-----------4---2---(0)------------|
E|-------------------------2---2----|-------------------------0---0----|


                                   (Y)
G|----------------------------------|----------------------------------|
D|---4---2--------------------------|---4---2--------------------------|
A|-----------4---2---(0)------------|-----------4---2---(0)------------|
E|-------------------------2---2----|-------------------------0---0----|


                                   (Z)
G|----------------------------------|----------------------------------|
D|----------------------------------|----------------------------------|
A|----------------------------------|----------------------------------|
E|-----2--2--0--1----2--2--0--1-----|-----2--2--0--1----2--2--0--1-----|

 REPEAT Z ANOTHER 3 TIMES

                                   (AA)
G|----------------------------------|----------------------------------|
D|----------------------------------|----------------------------------|
A|----------------------------------|----------------------------------|
E|--0--0----0--0-----0--0----0--0---|--2--2----2--2-----2--2----2--2---|


                                   (AB)
G|----------------------------------|----------------------------------|
D|----------------------------------|----------------------------------|
A|----------------------------------|----------------------------------|
E|--0--0----0--0-----0--0----0--0---|--2--2----2--2-----2--2----2--2---|


                                   (AC)
G|----------------------------------|----------------------------------|
D|----------------------------------|----------------------------------|
A|----------------------------------|----------------------------------|
E|--0--0----0--0-----0--0----0--0---|--2--2----2--2-----2--2----2--2---|


                                   (AD)
G|----------------------------------|----------------------------------|
D|----------------------------------|----------------------------------|
A|----------------------------------|----------------------------------|
E|--0--0----0--0-----0--0----0--0---|--2--2----2--2-----2--2----2--2---|


                                   (AE)
G|----------------------------------|----------------------------------|
D|----------------------------------|----------------------------------|
A|----------------------------------|----------------------------------|
E|--0--0----0--0-----0--0----0--0---|-----2--2--0--1-------------------|


                                   (AF)
G|----------------------------------|----------------------------------|
D|---4---2--------------------------|---4---2--------------------------|
A|-----------4---2---(0)------------|-----------4---2---(0)------------|
E|-------------------------0---0----|-------------------------2---2----|

 REPEAT AF UNTIL THE SONG FADES OUT




 
 

Back To Contents

Back To Main Stranglers Index