96 Tears


 96 TEARS
 
 ARTIST: THE STRANGLERS
 ALBUM: 10
 BASSIST: JEAN JACQUES BURNEL
 TAB BY mousey241@hotmail.com

 
                                   (A)
G|-------------------------4-3-2----|-------------------------4-3-2----|
D|--4-4-----4-4----------4--------2-|--4-4-----4-4----------4--------2-|
A|-------4--------4-2-2-------------|-------4--------4-2-2-------------|
E|----------------------------------|----------------------------------|


                                   (B)
G|-------------------------4-3-2----|-------------------------4-3-2----|
D|--4-4-----4-4----------4--------2-|--4-4-----4-4----------4--------2-|
A|-------4--------4-2-2-------------|-------4--------4-2-2-------------|
E|----------------------------------|----------------------------------|


                                   (C)
G|-------------------------4-3-2----|-------------------------4-3-2----|
D|--4-4-----4-4----------4--------2-|--4-4-----4-4----------4--------2-|
A|-------4--------4-2-2-------------|-------4--------4-2-2-------------|
E|----------------------------------|----------------------------------|


                                   (D)
G|-------------------------4-3-2----|-------------------------4-3-2----|
D|--4-4-----4-4----------4--------2-|--4-4-----4-4----------4--------2-|
A|-------4--------4-2-2-------------|-------4--------4-2-2-------------|
E|----------------------------------|----------------------------------|


                                   (E)
G|-------------------------4-3-2----|-------------------------4-3-2----|
D|--4-4-----4-4----------4--------2-|--4-4-----4-4----------4--------2-|
A|-------4--------4-2-2-------------|-------4--------4-2-2-------------|
E|----------------------------------|----------------------------------|


                                   (F)
G|-------------------------4-3-2----|-------------------------4-3-2----|
D|--4-4-----4-4----------4--------2-|--4-4-----4-4----------4--------2-|
A|-------4--------4-2-2-------------|-------4--------4-2-2-------------|
E|----------------------------------|----------------------------------|


                                   (G)
G|-------------------------4-3-2----|-------------------------4-3-2----|
D|--4-4-----4-4----------4--------2-|--4-4-----4-4----------4--------2-|
A|-------4--------4-2-2-------------|-------4--------4-2-2-------------|
E|----------------------------------|----------------------------------|


                                   (H)
G|-------------------------4-3-2----|-------------------------4-3-2----|
D|--4-4-----4-4----------4--------2-|--4-4-----4-4----------4--------2-|
A|-------4--------4-2-2-------------|-------4--------4-2-2-------------|
E|----------------------------------|----------------------------------|


                                   (I)
G|-------------------------4-3-2----|-------------------------4-3-2----|
D|--4-4-----4-4----------4--------2-|--4-4-----4-4----------4--------2-|
A|-------4--------4-2-2-------------|-------4--------4-2-2-------------|
E|----------------------------------|----------------------------------|


                                   (J)
G|-------------------------4-3-2----|-------------------------4-3-2----|
D|--4-4-----4-4----------4--------2-|--4-4-----4-4----------4--------2-|
A|-------4--------4-2-2-------------|-------4--------4-2-2-------------|
E|----------------------------------|----------------------------------|


                                   (K)
G|----------------------------------|----------------------------------|
D|----------------------------------|----------------------------------|
A|----------------------------------|----------------------------------|
E|-0--0-0-2--4--0--0-0--4--6--4--2--|-0--0-0-2--4--0--0-0--4--6--4--2--|
			

                                   (L)
G|----------------------------------|----------------------------------|
D|----------------------------------|----------------------------------|
A|----------------------------------|----------------------------------|
E|-0--0-0-2--4--0--0-0--4--6--4-----|--7---7---7---7---7---7---7---7---|


                                   (M)
G|-------------------------4-3-2----|-------------------------4-3-2----|
D|--4-4-----4-4----------4--------2-|--4-4-----4-4----------4--------2-|
A|-------4--------4-2-2-------------|-------4--------4-2-2-------------|
E|----------------------------------|----------------------------------|

 REPEAT M UNTIL THE SONG FADES OUT


BACK TO MENU