Ghost Train


  

 GHOST TRAIN
 ARTIST: THE STRANGLERS
 ALBUM: DREAMTIME
 BASSIST: JEAN JACQUES BURNEL
 TAB BY mousey241@hotmail.com

 
                                   (A)
G|----------------------------------|----------------------------------|
D|--------3--3----------3--3--------|--------3-------------------------|
A|--5--5----------5--5--------------|--5--5-----5-------3--------------|
E|----------------------------------|---------------5-------5----------|
 Repeat A 11 Times

                                   (B)
G|----------------------------------|----------------------------------|
D|----------------------------------|-------------------3--------------|
A|--------1--1----------1--1--------|--------1------5-------5----------|
E|--3--3----------3--3--------------|--3--3-----3----------------------|


                                   (C)
G|----------------------------------|----------------------------------|
D|----------------------------------|-------------------3--------------|
A|--------1--1----------1--1--------|--------1------5-------5----------|
E|--3--3----------3--3--------------|--3--3-----3----------------------|


                                   (D)
G|----------------------------------|----------------------------------|
D|--------5--5---------5--5---------|--------5-------------------------|
A|--7--7---------7--7---------------|--7--7-----7-------5--------------|
E|----------------------------------|---------------7-------7----------|


                                   (E)
G|----------------------------------|----------------------------------|
D|--------5--5---------5--5---------|--------5-------------------------|
A|--7--7---------7--7---------------|--7--7-----7-------5--------------|
E|----------------------------------|---------------7-------7----------|


                                   (F)
G|----------------------------------|----------------------------------|
D|----------------------------------|----------------------------------|
A|--------1--1----------1--1--------|--------3--3----------3--3--------|
E|--3--3----------3--3--------------|--5--5----------5--5--------------|

 Repeat A 8 Times

                                   (G)
G|----------------------------------|----------------------------------|
D|----------------------------------|-------------------3--------------|
A|--------1--1----------1--1--------|--------1------5-------5----------|
E|--3--3----------3--3--------------|--3--3-----3----------------------|


                                   (H)
G|----------------------------------|----------------------------------|
D|----------------------------------|-------------------3--------------|
A|--------1--1----------1--1--------|--------1------5-------5----------|
E|--3--3----------3--3--------------|--3--3-----3----------------------|


                                   (I)
G|----------------------------------|----------------------------------|
D|--------5--5---------5--5---------|--------5-------------------------|
A|--7--7---------7--7---------------|--7--7-----7-------5--------------|
E|----------------------------------|---------------7-------7----------|


                                   (J)
G|----------------------------------|----------------------------------|
D|--------5--5---------5--5---------|--------5-------------------------|
A|--7--7---------7--7---------------|--7--7-----7-------5--------------|
E|----------------------------------|---------------7-------7----------|


                                   (K)
G|----------------------------------|----------------------------------|
D|----------------------------------|----------------------------------|
A|--------1--1----------1--1--------|--------3--3----------3--3--------|
E|--3--3----------3--3--------------|--5--5----------5--5--------------|


                                   (L)
G|----------------------------------|----------------------------------|
D|--------3--3----------3--3--------|--------3-------------------------|
A|--5--5----------5--5--------------|--5--5-----5-------3--------------|
E|----------------------------------|---------------5-------5----------|


                                   (M)
G|----------------------------------|----------------------------------|
D|--------3--3----------3--3--------|--------3--3----------3--3--------|
A|--5--5----------5--5--------------|--5--5----------5--5--------------|
E|----------------------------------|----------------------------------|
			

                                   (N)
G|----------------------------------|----------------------------------|
D|----------------------------------|----------------------------------|
A|--------3--3----------3--3--------|--------3--3----------3--3--------|
E|--5--5----------5--5--------------|--5--5----------5--5--------------|


                                   (O)
G|----------------------------------|----------------------------------|
D|----------------------------------|----------------------------------|
A|--------3--3----------3--3--------|--------3--3----------3--3--------|
E|--5--5----------5--5--------------|--5--5----------5--5--------------|


                                   (P)
G|----------------------------------|----------------------------------|
D|----------------------------------|----------------------------------|
A|----------------------------------|----------------------------------|
E|--3------3--3--------3--3--3------|--1------1--1------1--1--1--------|


                                   (Q)
G|----------------------------------|----------------------------------|
D|----------------------------------|----------------------------------|
A|----------------------------------|----------------------------------|
E|--3------3--3--------3--3--3------|--1------1--1------1--1--1--------|


                                   (R)
G|----------------------------------|----------------------------------|
D|----------------------------------|----------------------------------|
A|----------------------------------|----------------------------------|
E|--3------3--3--------3--3--3------|--1------1--1------1--1--1--------|


                                   (S)
G|----------------------------------|----------------------------------|
D|----------------------------------|----------------------------------|
A|----------------------------------|--1--1--1--1--1--1----------------|
E|--3------3--3--------3--3--3------|--------------------0---1---2-----|


                                   (T)
G|----------------------------------|----------------------------------|
D|----------------------------------|----------------------------------|
A|-------------------------3--------|--3-------------------------------|
E|--3---------------3---------------|------0---1---2---3---0---1---2---|


                                   (U)
G|----------------------------------|----------------------------------|
D|----------------------------------|----------------------------------|
A|-------------------------3--------|--3-------------------------------|
E|--3---------------3---------------|------0---1---2---3---0---1---2---|


                                   (V)
G|----------------------------------|----------------------------------|
D|----------------------------------|----------------------------------|
A|-------------------------3--------|--3-------------------------------|
E|--3---------------3---------------|------0---1---2---3---0---1---2---|


                                   (W)
G|----------------------------------|----------------------------------|
D|----------------------------------|----------------------------------|
A|-------------------------3--------|--3-----------------------3-------|
E|--3---------------3---------------|------0---1---2---3---5-------5---|

 Repeat A 8 Times

                                   (X)
G|----------------------------------|----------------------------------|
D|----------------------------------|-------------------3--------------|
A|--------1--1----------1--1--------|--------1------5-------5----------|
E|--3--3----------3--3--------------|--3--3-----3----------------------|


                                   (Y)
G|----------------------------------|----------------------------------|
D|----------------------------------|-------------------3--------------|
A|--------1--1----------1--1--------|--------1------5-------5----------|
E|--3--3----------3--3--------------|--3--3-----3----------------------|


                                   (Z)
G|----------------------------------|----------------------------------|
D|--------5--5---------5--5---------|--------5-------------------------|
A|--7--7---------7--7---------------|--7--7-----7-------5--------------|
E|----------------------------------|---------------7-------7----------|


                                   (AA)
G|----------------------------------|----------------------------------|
D|--------5--5---------5--5---------|--------5-------------------------|
A|--7--7---------7--7---------------|--7--7-----7-------5--------------|
E|----------------------------------|---------------7-------7----------|


                                   (AB)
G|----------------------------------|----------------------------------|
D|----------------------------------|----------------------------------|
A|--------1--1----------1--1--------|--------3--3----------3--3--------|
E|--3--3----------3--3--------------|--5--5----------5--5--------------|


                                   (AC)
G|----------------------------------|----------------------------------|
D|--------3--3----------3--3--------|--------3-------------------------|
A|--5--5----------5--5--------------|--5--5-----5-------3--------------|
E|----------------------------------|---------------5-------5----------|


                                   (AD)
G|----------------------------------|----------------------------------|
D|--------3--3----------3--3--------|--------3--3----------3--3--------|
A|--5--5----------5--5--------------|--5--5----------5--5--------------|
E|----------------------------------|----------------------------------|


                                   (AE)
G|----------------------------------|----------------------------------|
D|----------------------------------|----------------------------------|
A|--------3--3----------3--3--------|--------3--3----------3--3--------|
E|--5--5----------5--5--------------|--5--5----------5--5--------------|


                                   (AF)
G|----------------------------------|----------------------------------|
D|----------------------------------|----------------------------------|
A|--------3--3----------3--3--------|--------3--3----------3--3--------|
E|--5--5----------5--5--------------|--5--5----------5--5--------------|


                                   (AG)
G|----------------------------------|----------------------------------|
D|----------------------------------|----------------------------------|
A|----------------------------------|----------------------------------|
E|--3------3--3--------3--3--3------|--1------1--1------1--1--1--------|


                                   (AH)
G|----------------------------------|----------------------------------|
D|----------------------------------|----------------------------------|
A|----------------------------------|----------------------------------|
E|--3------3--3--------3--3--3------|--1------1--1------1--1--1--------|


                                   (AI)
G|----------------------------------|----------------------------------|
D|----------------------------------|----------------------------------|
A|----------------------------------|----------------------------------|
E|--3------3--3--------3--3--3------|--1------1--1------1--1--1--------|


                                   (AJ)
G|----------------------------------|----------------------------------|
D|----------------------------------|----------------------------------|
A|----------------------------------|--1--1--1--1--1--1----------------|
E|--3------3--3--------3--3--3------|--------------------0---1---2-----|


                                   (AK)
G|----------------------------------|----------------------------------|
D|----------------------------------|----------------------------------|
A|-------------------------3--------|--3-------------------------------|
E|--3---------------3---------------|------0---1---2---3---0---1---2---|

 Repeat Ak Until 			

                                   (AL)
G|----------------------------------|----------------------------------|
D|----------------------------------|----------------------------------|
A|-------------------------3--------|--3-------------------------------|
E|--3---------------3---------------|------0---1---2---3---------------|




BACK TO MENU