Sinister


SONG: SINISTER
ARTIST: THE STRANGLERS
ALBUM: ABOUT TIME
BASSIST: JEAN JACQUES BURNEL
TAB BY user@johnrosk.softnet.CO.UK

R = REST

BASS COMES IN AT 48 SECONDS


			(A)
G|----------------------------------|---------------------------------|
D|----------------------------------|---------------------------------|
A|----------------------------------|---------------------------------|
E|---4-HOLD-------------------------|---------------------------------|

				
			(A)
G|----------------------------------|---------------------------------|
D|----------------------------------|---------------------------------|
A|---7---7---7---7---7---R----------|-------7---7---7---7------5------|
E|----------------------------------|---------------------------------|



			(B)
G|----------------------------------|---------------------------------|
D|----------------------------------|---------------------------------|
A|----------------------------------|--------------------------5------|
E|---7---7---7---7---7---R----------|-------7---7---7---7-------------|


REPEAT A, B, A, B, A


			(C)
G|----------------------------------|---------------------------------|
D|----------------------------------|---------------------------------|
A|----------------------------------|---------------------------------|
E|---4---4---4---4---4---R----------|------4---4---4---4---4---4---R--|



			(D)		
G|----------------------------------|---------------------------------|
D|----------------------------------|---------------------------------|
A|----------------------------------|---------------------------------|
E|---3---3---3---3---3---R----------|------3---3---3---3---3---3---3--|

			(E)
G|----------------------------------|---------------------------------|
D|----------------------------------|---------------------------------|
A|----------------------------------|---------------------------------|
E|---3---3---3---3---3---R----------|------3---3---3---3---3---3---R--|


			(F)			
G|----------------------------------|---------------------------------|
D|----------------------------------|---------------------------------|
A|----------------------------------|---------------------------------|
E|---5---5---5---5---5---R----------|------5---5---5---5---5---5---R--|



			(G)
G|----------------------------------|---------------------------------|
D|----------------------------------|---------------------------------|
A|----------------------------------|---------------------------------|
E|---7---7---7---7---7---R----------|------7---7---7---7---7---7---R--|



			(H)
G|----------------------------------|---------------------------------|
D|----------------------------------|---------------------------------|
A|----------------------------------|---------------------------------|
E|---8---8---8---8---8---R----------|------8---8---8---8---8---8---R--|



			(I)
G|----------------------------------|---------------------------------|
D|----------------------------------|---------------------------------|
A|---5---5---5---5---5---R----------|------5---5---5---5---5---5---R--|
E|----------------------------------|---------------------------------|


REPEAT A, B  5 TIMES

REPEAT A 

REPEAT C, D, E, F, G, I

			(J)
G|----------------------------------|---------------------------------|
D|----------------------------------|---------------------------------|
A|---7---7---7---7---7---R----------|------7---7---7---7---7---5---5--|
E|----------------------------------|---------------------------------|
	

			(K)
G|----------------------------------|---------------------------------|
D|----------------------------------|---------------------------------|
A|----------------------------------|---------------------------------|
E|---7---7---7---7---7---R----------|------7---7---7---7---7---7---7--|


			(L)
G|----------------------------------|---------------------------------|
D|----------------------------------|---------------------------------|
A|---5---5---5---5---5---R----------|---------------------------------|
E|----------------------------------|---5---5---5---5---5---R---------|


			(M)
G|----------------------------------|---------------------------------|
D|----------------------------------|---------------------------------|
A|---7---7---7---7---7---R----------|---------------------------------|
E|----------------------------------|---7---7---7---7---7---R---------|



			(N)
G|----------------------------------|---------------------------------|
D|----------------------------------|---------------------------------|
A|----------------------------------|--------------------------9------|
E|---7---7---7---7---7---R----------|------7---7---7---7---7----------|



REPEAT B, A 4 TIMES

REPEAT C, D, E , F, G, H, I

REPEAT A, B 6 TIMES

			(O)
G|----------------------------------|---------------------------------|
D|----------------------------------|---------------------------------|
A|---7-HOLD-------------------------|---------------------------------|
E|----------------------------------|---------------------------------|



BACK TO MENU