Old Codger


 SONG: OLD CODGER 
 ARTIST: THE STRANGLERS 
 ALBUM: OFF THE BEATEN TRACK
 BASSIST: JEAN JACQUES BURNEL
 TAB BY user@johnrosk.softnet.co,uk

 R =REST

			(A)
G|----------------------------------|---------------------------------|
D|----------------------------------|---------------------------------|
A|----------------------------------|---------------------------------|
E|------------------------------0---|--3---3---0---R---------------0--|

				
			(B)
G|----------------------------------|---------------------------------|
D|----------------------------------|--------------2---0--------------|
A|----------------------------------|----------------------4---2------|
E|---3---3---0---R--------------0---|--3---3---0-------------------0--|

				
			(C)
G|----------------------------------|---------------------------------|
D|---------------2---0--------------|--------------2---0--------------|
A|-----------------------4---2------|----------------------4---2------|
E|---3---3---0-------------------0--|--3---3---0-------------------0--|


			(D)
G|----------------------------------|---------------------------------|
D|----------------------------------|---------------------------------|
A|----------------------------------|---------------------------------|
E|---3---3---0---0---3---3---0---0--|--3---3---0---0---3---3---0---0--|


			(E)
G|----------------------------------|---------------------------------|
D|-------------------------------0--|------------------------------0--|
A|----------------------------------|--4---2---0----------------------|
E|---3---3---0---0---3---3---0------|--------------0---3---3---0------|


			(F)			
G|----------------------------------|---------------------------------|
D|-------------------------------0--|------------------------------0--|
A|---4---2---0----------------------|--4---2---0----------------------|
E|---------------0---3---3---0------|--------------0---3---3---0------|

REPEAT F							

			(G)
G|----------------------------------|---------------------------------|
D|----------------------------------|---------------------------------|
A|---4---2---5---7---5---7---5---7--|--5---7---5---7---5---7---5---7--|
E|----------------------------------|---------------------------------|


			(H)
G|----------------------------------|---------------------------------|
D|-------------------------------2--|--0---------------------------2--|
A|--5---7---0---0--------3---0------|------4---2----------------------|
E|----------------------------------|--------------0---3---3---0------|


			(I)	
G|----------------------------------|---------------------------------|
D|---0---------------------------2--|--0------------------------------|
A|-------4---2----------------------|------4---2----------------------|
E|---------------0---3---3---0------|--------------0---3---3---0---0--|

REPEAT D 

			(J)
G|----------------------------------|---------------------------------|
D|---------------0------------------|--------------0------------------|
A|-------------------4---2---0------|------------------4---2---0------|
E|---3---3---0-------------------0--|--3---3---0-------------------0--|

REPEAT J

			(K)
G|----------------------------------|---------------------------------|
D|---------------0------------------|--------------0------------------|
A|-------------------4---2---0------|------------------4---2---5---7--|
E|---3---3---0-------------------0--|--3---3---0----------------------|


			(L)
G|----------------------------------|---------------------------------|
D|----------------------------------|---------------------------------|
A|---5---7---5---7---5---7---5---7--|--5---7---5---7---5---7---0---0--|
E|----------------------------------|---------------------------------|


			(M)
G|----------------------------------|---------------------------------|
D|---------------2---0--------------|--------------2---0--------------|
A|-----------------------4---2------|----------------------4---2------|
E|-------3---0-------------------0--|--3---3---0-------------------0--|


			(N)
G|----------------------------------|---------------------------------|
D|---------------2---0--------------|---------------------------------|
A|-----------------------4---2------|---------------------------------|
E|---3---3---0-------------------0--|--3---3---0---0---3---3---0---0--|


			(O)
G|----------------------------------|---------------------------------|
D|----------------------------------|------------------------------0--|
A|----------------------------------|---------------------------------|
E|---3---3---0---0---3---3---0---0--|--3---3---0---0---3---3---0------|
			
REPEAT F, F,

			(P)
G|----------------------------------|---------------------------------|
D|-------------------------------0--|---------------------------------|
A|---4---2---0----------------------|--4---2---5---7---5---7---5---7--|
E|---------------0---3---3---0------|---------------------------------| 


			(Q)
G|----------------------------------|---------------------------------|
D|---4------------------------------|--4------------------------------|
A|-------7---5---7---5---7---5---7--|------7---0---0---0--------------|
E|----------------------------------|--------------------------0------|

			(R)
G|----------------------------------|---------------------------------|
D|---2---0--------------------------|---------------------------------|
A|-----------4---2---0--------------|---------------------------------|
E|-----------------------4---2---0--|--2---R---2---3---2---3---2---3--|


			(S)
G|----------------------------------|---------------------------------|
D|----------------------------------|----------------------2---0------|
A|----------------------------------|------------------------------4--|
E|---2---3---2---3---2---3---2---3--|--2---3---2---3---0--------------|


			(T)
G|----------------------------------|---------------------------------|
D|-----------------------2---0------|------------------0--------------|
A|---2---0-----------------------4--|--2---0---------------4---2------|
E|-----------3---2---0--------------|----------3---2---------------3--|


			(U)
G|----------------------------------|---------------------------------|
D|-----------0----------------------|----------0----------------------|
A|---------------4---2---0---0------|--------------4---2---0----------|
E|---3---0-----------------------3--|--3---0-------------------3---2--|


			(V)
G|----------------------------------|---------------------------------|
D|----------------------------------|---------------------------------|
A|----------------------------------|------------------------------0--|
E|---3---0---0---3-S-5---3---0---3-S|--5---3-S-7---5---3---0---3------|


			(W)
G|----------------------------------|---------------------------------|
D|----------------------------------|---------------------------------|
A|---------------0-------1---1---0--|-1-0--------------0---1---1---0--|
E|---3---0---3-------3--------------|------0---0---3------------------|


			(X)
G|----------------------------------|---------------------------------|
D|----------------------------------|---------------------------------|
A|-1-0---------------0---1---1---0--|-1-0--------------0---1---1---0--|
E|-------3---0---3------------------|------3---0---3------------------|


			(Y)
G|----------------------------------|---------------------------------|
D|----------------------------------|----------2---0-----------2---0--|
A|-1-0-----------5---4---2---0------|------------------4---2----------|
E|-------3---0-------------------3--|--3---0--------------------------|


			(Z)
G|----------------------------------|---------------------------------|
D|----------------------------------|---------------------------------|
A|---4---0---0----------------------|---------------------------------|
E|---------------3---2---0---0---0--|--3---3---5---5---6---6---5---3--|


			(AA)
G|----------------------------------|---------------------------------|
D|-------------------------------2--|--0-----------2---0-------2---2--|
A|----------------------------------|------4---0-----------4----------|
E|---5---3---0---6---5---3---R------|---------------------------------|


			(AB)
G|----------------------------------|---------------------------------|
D|---0-------2---2---0----------2---|--0-----------2---0-----------2--|
A|-------4---------------4----------|------4---------------4----------|
E|---------------------------0------|----------0---------------0------|


			(AC)
G|----------------------------------|---------------------------------|
D|---0---------------------------2--|--0------------------------------|
A|-------4---2---0------------------|------4---2----------------------|
E|-------------------3---2---0------|--------------0---3---5---R---0--|


			(AD)
G|----------------------------------|---------------------------------|
D|----------------------------------|---------------------------------|
A|----------------------------------|---------------------------------|
E|-3---5---R---0-0--3---5---R---0-0-|--3---2--R---0-0--3---5--R---0-0-|


			(AE)			
G|----------------------------------|---------------------------------|
D|----------------------------------|---------------------------------|
A|----------------------------------|---------------------------------|
E|--3---5---R---5-6--5---3---R---0--|--0---R-----5-6---5---3---R---0--|


			(AF)
G|----------------------------------|---------------------------------|
D|----------------------------------|---------------------------------|
A|----------------------------------|---------------------------------|
E|---0---R-----5-6---5--3----R---0--|--0---R-----5-6---5---3---R---0--|


SONG FADES OUT REPEATING AF



BACK TO MENU