Dreamtime


 DREAMTIME
 
 ARTIST: THE STRANGLERS
 ALBUM: DREAMTIME
 BASSIST: JEAN JACQUES BURNEL
  TAB BY mousey241@hotmail.com

 *=HOLD NOTE

 
                                   (A)
G|----------------------------------|----------------------------------|
D|----------------------------------|----------------------------------|
A|----------------------------------|----------------------------------|
E|--7--7--0--2--5----7--7--0--2--5--|--7--7--0--2--5----7--7--0--2--5--|


                                   (B)
G|----------------------------------|----------------------------------|
D|----------------------------------|----------------------------------|
A|----------------------------------|----------------------------------|
E|--7--7--0--2--5----7--7--0--2--5--|--7--7--0--2--5----7--7--0--2--5--|


                                   (C)
G|----------------------------------|----------------------------------|
D|----------------------------------|----------------------------------|
A|----------------------------------|----------------------------------|
E|--7--7--0--2--5----7--7--0--2--5--|--7--7--0--2--5----7--7--0--2--5--|


                                   (D)
G|----------------------------------|----------------------------------|
D|----------------------------------|----------------------------------|
A|----------------------------------|----------------------------------|
E|--7--7--0--2--5----7--7--0--2--5--|--7--7--0--2--5----7--7--0--2--5--|


                                   (E)
G|----------------------------------|----------------------------------|
D|----------------------------------|----------------------------------|
A|----------------------------------|----------------------------------|
E|--7--7--0--2--5----7--7--0--2--5--|--7--7--0--2--5----7--7--0--2--5--|


                                   (F)
G|----------------------------------|----------------------------------|
D|----------------------------------|----------------------------------|
A|----------------------------------|----------------------------------|
E|--7--7--0--2--5----7--7--0--2--5--|--7--7--0--2--5----7--7--0--2--5--|


                                   (G)
G|----------------------------------|----------------------------------|
D|----------------------------------|----------------------------------|
A|----------5--5--------------------|----------5--5--------------------|
E|--3--3-------------7--7--0--2--5--|--3--3-------------7--7--0--2--5--|


                                   (H)
G|----------------------------------|----------------------------------|
D|----------------------------------|----------------------------------|
A|----------------------------------|----------------------------------|
E|--7--7--0--2--5----7--7--0--2--5--|--7--7--0--2--5----7--7--0--2--5--|


                                   (I)
G|----------------------------------|----------------------------------|
D|----------------------------------|----------------------------------|
A|----------------------------------|----------------------------------|
E|--7--7--0--2--5----7--7--0--2--5--|--7--7--0--2--5----7--7--0--2--5--|


                                   (J)
G|----------------------------------|----------------------------------|
D|----------------------------------|----------------------------------|
A|----------5--5--------------------|----------5--5--------------------|
E|--3--3-------------7--7--0--2--5--|--3--3-------------7--7--0--2--5--|


                                   (K)
G|----------------------------------|----------------------------------|
D|----------------------------------|----------------------------------|
A|---------5--5--7---5--5--4---2--2-|------7---5--5-----4---2--2-------|
E|--3--3----------------------------|----------------------------------|


                                   (L)
G|----------------------------------|----------------------------------|
D|----------------------------------|----------------------------------|
A|------7---5--5-----4---2--2-------|----------------------------------|
E|----------------------------------|--0--------2--------3--------5----|


                                   (M)
G|----------------------------------|----------------------------------|
D|----------------------------------|----------------------------------|
A|----------------------------------|----------------------------------|
E|--7--7--0--2--5----7--7--0--2--5--|--7--7--0--2--5----7--7--0--2--5--|
			

                                   (N)
G|----------------------------------|----------------------------------|
D|----------------------------------|----------------------------------|
A|----------------------------------|----------------------------------|
E|--7--7--0--2--5----7--7--0--2--5--|--7--7--0--2--5----7--7--0--2--5--|


                                   (O)
G|----------------------------------|----------------------------------|
D|----------------------------------|----------------------------------|
A|----------5--5--------------------|----------5--5--------------------|
E|--3--3-------------7--7--0--2--5--|--3--3-------------7--7--0--2--5--|


                                   (P)
G|----------------------------------|----------------------------------|
D|----------------------------------|----------------------------------|
A|----------------------------------|----------------------------------|
E|--7--7--0--2--5----7--7--0--2--5--|--7--7--0--2--5----7--7--0--2--5--|


                                   (Q)
G|----------------------------------|----------------------------------|
D|----------------------------------|----------------------------------|
A|----------------------------------|----------------------------------|
E|--7--7--0--2--5----7--7--0--2--5--|--7--7--0--2--5----7--7--0--2--5--|


                                   (R)
G|----------------------------------|----------------------------------|
D|----------------------------------|----------------------------------|
A|----------5--5--------------------|----------5--5--------------------|
E|--3--3-------------7--7--0--2--5--|--3--3-------------7--7--0--2--5--|


                                   (S)
G|----------------------------------|----------------------------------|
D|----------------------------------|----------------------------------|
A|---------5--5--7---5--5--4---2--2-|------7---5--5-----4---2--2-------|
E|--3--3----------------------------|----------------------------------|


                                   (T)
G|----------------------------------|----------------------------------|
D|----------------------------------|----------------------------------|
A|------7---5--5-----4---2--2-------|----------------------------------|
E|----------------------------------|--0--------2--------3--------5----|


                                   (U)
G|----------------------------------|----------------------------------|
D|----------------------------------|----------------------------------|
A|----------------------------------|----------------------------------|
E|--7--7--0--2--5----7--7--0--2--5--|--7--7--0--2--5----7--7--0--2--5--|


                                   (V)
G|----------------------------------|----------------------------------|
D|----------------------------------|----------------------------------|
A|----------5--5--------------------|----------5--5--------------------|
E|--3--3-------------7--7--0--2--5--|--3--3-------------7--7--0--2--5--|


                                   (W)
G|----------------------------------|
D|----------------------------------|
A|----------5--5--------------------|
E|--3--3-------------0*-------------|


                                   (X)
G|----------------------------------|----------------------------------|
D|----------------------------------|----------------------------------|
A|----------5--5--------------------|----------5--5--------------------|
E|--3--3-------------7--7--0--2--5--|--3--3-------------7--7--0--2--5--|


                                   (Y)
G|----------------------------------|----------------------------------|
D|----------------------------------|----------------------------------|
A|----------5--5--------------------|----------5--5--------------------|
E|--3--3------------0*--------------|--3--3------------7*--------------|


BACK TO MENU