Duchess



 DUCHESS

 ARTIST: THE STRANGLERS
 ALBUM: THE RAVEN
 BASSIST: JEAN JACQUES BURNEL
  TAB BY mousey241@hotmail.com

 *=HOLD NOTE

 
                                   (A)
G|----------------------------------|----------------------------------|
D|----------------------------------|----------------------------------|
A|----------------------------------|----------------------------------|
E|--5------------------4------------|--2------------------0--------15\-|


                                   (B)
G|----------------------------------|----------------------------------|
D|----------------------------------|----------------------------------|
A|----------------------------------|----------------------------------|
E|--5--5--5--5--5----5--5--5--5--5--|--4--4--4--4--4----4--4--4--4--4--|


                                   (C)
G|----------------------------------|----------------------------------|
D|----------------------------------|----------------------------------|
A|----------------------------------|--------------5-5-4-4-5-5-4-4-5-4-|
E|--2--2--2--2--2----2--2--2--2--2--|--0-0-0-0-0-----------------------|


                                   (D)
G|----------------------------------|----------------------------------|
D|----------------------------------|----------------------------------|
A|----------------------------------|----------------------------------|
E|--5--5--5--5--5----5--5--5--5--5--|--4--4--4--4--4----4--4--4--4--4--|


                                   (E)
G|----------------------------------|----------------------------------|
D|----------------------------------|----------------------------------|
A|----------------------------------|--------------5-5-4-4-5-5-4-4-5-4-|
E|--2--2--2--2--2----2--2--2--2--2--|--0-0-0-0-0-----------------------|



                                   (F)
G|----------------------------------|----------------------------------|
D|----------------------------------|----------------------------------|
A|-7--7--7--7--7-----5--5--5--5--5--|-9--9--9--9--9-----7--7--7--7--7--|
E|----------------------------------|----------------------------------|


                                   (G)
G|----------------------------------|----------------------------------|
D|----------------------------------|----------------------------------|
A|----------------------------------|----------------------------------|
E|--5--5--5--5--5----5--5--5--5--5--|--4--4--4--4--4----4--4--4--4--4--|


                                   (H)
G|----------------------------------|----------------------------------|
D|----------------------------------|----------------------------------|
A|----------------------------------|--------------5-5-4-4-5-5-4-4-5-4-|
E|--2--2--2--2--2----2--2--2--2--2--|--0-0-0-0-0-----------------------|


                                   (I)
G|----------------------------------|----------------------------------|
D|----------------------------------|----------------------------------|
A|----------------------------------|----------------------------------|
E|--5--5--5--5--5----5--5--5--5--5--|--4--4--4--4--4----4--4--4--4--4--|


                                   (J)
G|----------------------------------|----------------------------------|
D|----------------------------------|----------------------------------|
A|----------------------------------|--------------5-5-4-4-5-5-4-4-5-4-|
E|--2--2--2--2--2----2--2--2--2--2--|--0-0-0-0-0-----------------------|


                                   (K)
G|----------------------------------|----------------------------------|
D|----------------------------------|----------------------------------|
A|-7--7--7--7--7-----5--5--5--5--5--|-9--9--9--9--9-----7--7--7--7--7--|
E|----------------------------------|----------------------------------|

			
                                   (L)
G|----------------------------------|----------------------------------|
D|----------------------------------|----------------------------------|
A|--5--5--5--5--5----5--5--5--5--5--|--4--4--4--4--4----4--4--4--4--4--|
E|----------------------------------|----------------------------------|


                                   (M)
G|----------------------------------|----------------------------------|
D|----------------------------------|----------------------------------|
A|-2--2--2--2--2-0------------------|----------------------------------|
E|-----------------4--4--4--4--4--2-|-0--0--0--0--0--2--4--4--4--4--4--|


                                   (N)
G|----------------------------------|----------------------------------|
D|----------------------------------|----------------------------------|
A|--5--5--5--5--5----5--5--5--5--5--|--4--4--4--4--4----4--4--4--4--4--|
E|----------------------------------|----------------------------------|


                                   (O)
G|----------------------------------|----------------------------------|
D|----------------------------------|----------------------------------|
A|-2--2--2--2--2-0------------------|----------------------------------|
E|-----------------4--4--4--4--4--2-|-0--0--0--0--0--2--4--4--4--4--4--|


                                   (P)
G|----------------------------------|----------------------------------|
D|----------------------------------|----------------------------------|
A|----------------------------------|----------------------------------|
E|--5--5--5--5--5----5--5--5--5--5--|--4--4--4--4--4----4--4--4--4--4--|


                                   (Q)
G|----------------------------------|----------------------------------|
D|----------------------------------|----------------------------------|
A|----------------------------------|--------------5-5-4-4-5-5-4-4-5-4-|
E|--2--2--2--2--2----2--2--2--2--2--|--0-0-0-0-0-----------------------|


                                   (R)
G|----------------------------------|----------------------------------|
D|----------------------------------|----------------------------------|
A|----------------------------------|----------------------------------|
E|--5--5--5--5--5----5--5--5--5--5--|--4--4--4--4--4----4--4--4--4--4--|


                                   (S)
G|----------------------------------|----------------------------------|
D|----------------------------------|----------------------------------|
A|----------------------------------|--------------5-5-4-4-5-5-4-4-5-4-|
E|--2--2--2--2--2----2--2--2--2--2--|--0-0-0-0-0-----------------------|


                                   (T)
G|----------------------------------|----------------------------------|
D|----------------------------------|----------------------------------|
A|-7--7--7--7--7-----5--5--5--5--5--|-9--9--9--9--9-----7--7--7--7--7--|
E|----------------------------------|----------------------------------|

			
                                   (U)
G|----------------------------------|----------------------------------|
D|----------------------------------|----------------------------------|
A|--5--5--5--5--5----5--5--5--5--5--|--4--4--4--4--4----4--4--4--4--4--|
E|----------------------------------|----------------------------------|


                                   (V)
G|----------------------------------|----------------------------------|
D|----------------------------------|----------------------------------|
A|-2--2--2--2--2-0------------------|----------------------------------|
E|-----------------4--4--4--4--4--2-|-0--0--0--0--0--2--4--4--4--4--4--|


                                   (W)
G|----------------------------------|----------------------------------|
D|----------------------------------|----------------------------------|
A|--5--5--5--5--5----5--5--5--5--5--|--4--4--4--4--4----4--4--4--4--4--|
E|----------------------------------|----------------------------------|


                                   (X)
G|----------------------------------|----------------------------------|
D|----------------------------------|----------------------------------|
A|-2--2--2--2--2-0------------------|----------------------------------|
E|-----------------4--4--4--4--4--2-|-0--0--0--0--0--2--4--4--4--4--4--|


                                   (Y)
G|----------------------------------|----------------------------------|
D|----------------------------------|----------------------------------|
A|----------------------------------|----------------------------------|
E|--5--5--5--5--5----5--5--5--5--5--|--4--4--4--4--4----4--4--4--4--4--|


                                   (Z)
G|----------------------------------|----------------------------------|
D|----------------------------------|----------------------------------|
A|----------------------------------|--------------5-5-4-4-5-5-4-4-5-4-|
E|--2--2--2--2--2----2--2--2--2--2--|--0-0-0-0-0-----------------------|


                                   (AA)
G|----------------------------------|----------------------------------|
D|----------------------------------|----------------------------------|
A|----------------------------------|----------------------------------|
E|--5--5--5--5--5----5--5--5--5--5--|--4--4--4--4--4----4--4--4--4--4--|


                                   (AB)
G|----------------------------------|----------------------------------|
D|----------------------------------|----------------------------------|
A|----------------------------------|--------------5-5-4-4-5-5-4-4-5-4-|
E|--2--2--2--2--2----2--2--2--2--2--|--0-0-0-0-0-----------------------|



                                   (AC)
G|----------------------------------|----------------------------------|
D|----------------------------------|----------------------------------|
A|-7--7--7--7--7-----5--5--5--5--5--|-9--9--9--9--9-----7--7--7--7--7--|
E|----------------------------------|----------------------------------|



                                   (AD)
G|----------------------------------|----------------------------------|
D|----------------------------------|----------------------------------|
A|-7--7--7--7--7-----5--5--5--5--5--|-9--9--9--9--9-----7--7--7--7--7--|
E|----------------------------------|----------------------------------|


                                   (AE)
G|----------------------------------|----------------------------------|
D|----------------------------------|----------------------------------|
A|-7--7--7--7--7-----5--5--5--5--5--|-9--9--9--9--9-----7--7--7--7--7--|
E|----------------------------------|----------------------------------|


                                   (AF)
G|----------------------------------|----------------------------------|
D|----------------------------------|----------------------------------|
A|-7--7--7--7--7-----5--5--5--5--5--|-9--9--9--9--9-----7--7--7--7--7--|
E|----------------------------------|----------------------------------|


                                   (AG)
G|----------------------------------|----------------------------------|
D|----------------------------------|----------------------------------|
A|--5--5--5--5--5----5--5--5--5--5--|--4--4--4--4--4----4--4--4--4--4--|
E|----------------------------------|----------------------------------|


                                   (AH)
G|----------------------------------|----------------------------------|
D|----------------------------------|----------------------------------|
A|-2--2--2--2--2-0------------------|----------------------------------|
E|-----------------4--4--4--4--4--2-|-0--0--0--0--0--2--4--4--4--4--4--|


                                   (AI)
G|----------------------------------|----------------------------------|
D|----------------------------------|----------------------------------|
A|--5--5--5--5--5----5--5--5--5--5--|--4--4--4--4--4----4--4--4--4--4--|
E|----------------------------------|----------------------------------|


                                   (AJ)
G|----------------------------------|----------------------------------|
D|----------------------------------|----------------------------------|
A|-2--2--2--2--2-0------------------|----------------------------------|
E|-----------------4--4--4--4--4--2-|-0--0--0--0--0--2--4--4--4--4--4--|


                                   (AK)
G|----------------------------------|----------------------------------|
D|----------------------------------|----------------------------------|
A|--5-------------------------------|--4-------------------------------|
E|----------------------------------|-----------------------------0*---|
			

  

BACK TO MENU