Enough Time


 ENOUGH TIME
 ARTIST: THE STRANGLERS
 ALBUM: BLACK AND WHITE
 BASSIST: JEAN JACQUES BURNEL
 TAB BY mousey241@hotmail.com

 
                                   (A)
G|----------------------------------|----------------------------------|
D|----------------------------------|----------------------------------|
A|--8--8--8--7----------------------|---8--8--8--7---------------------|
E|----------------0-----------------|--------------0-------------------|


                                   (B)
G|----------------------------------|----------------------------------|
D|----------------------------------|----------------------------------|
A|--8-8-8-7----7-----7-----7-----7--|----8-8-8-7----7-----7-----7------|
E|-----------0-----0-----0-----0----|-------------0-----0-----0--------|


                                   (C)
G|----------------------------------|----------------------------------|
D|----------------------------------|----------------------------------|
A|-------5--7--5--7--5--------------|----------------------------------|
E|----7-----------------5--7--5-----|--5--7--5--7--5----5--7--5--7--5--|


                                   (D)
G|----------------------------------|----------------------------------|
D|----------------------------------|----------------------------------|
A|-------5--7--5--7--5--------------|----------------------------------|
E|----7-----------------5--7--5-----|--5--7--5--7--5----5--7--5--7--5--|


                                   (E)
G|----------------------------------|----------------------------------|
D|----------------------------------|----------------------------------|
A|-------5--7--5--7--5--------------|----------------------------------|
E|----7-----------------5--7--5-----|--5--7--5--7--5----5--7--5--7--5--|


                                   (F)
G|----------------------------------|----------------------------------|
D|----------------------------------|----------------------------------|
A|-------5--7--5--7--5--------------|----------------------------------|
E|----7-----------------5--7--5-----|--5--7--5--7--5----5--7--5--------|


                                   (G)
G|----------------------------------|----------------------------------|
D|----------------------------------|----------------------------------|
A|--8--8--8--7----------------------|---8--8--8--7---------------------|
E|----------------0-----------------|--------------0-------------------|


                                   (H)
G|----------------------------------|----------------------------------|
D|----------------------------------|----------------------------------|
A|--8-8-8-7----7-----7-----7-----7--|----8-8-8-7----7-----7-----7------|
E|-----------0-----0-----0-----0----|-------------0-----0-----0--------|


                                   (I)
G|----------------------------------|----------------------------------|
D|----------------------------------|----------------------------------|
A|-------5--7--5--7--5--------------|----------------------------------|
E|----7-----------------5--7--5-----|--5--7--5--7--5----5--7--5--7--5--|


                                   (J)
G|----------------------------------|----------------------------------|
D|----------------------------------|----------------------------------|
A|-------5--7--5--7--5--------------|----------------------------------|
E|----7-----------------5--7--5-----|--5--7--5--7--5----5--7--5--7--5--|


                                   (K)
G|----------------------------------|----------------------------------|
D|----------------------------------|----------------------------------|
A|-------5--7--5--7--5--------------|----------------------------------|
E|----7-----------------5--7--5-----|--5--7--5--7--5----5--7--5--7--5--|


                                   (L)
G|----------------------------------|----------------------------------|
D|----------------------------------|----------------------------------|
A|-------5--7--5--7--5--------------|----------------------------------|
E|----7-----------------5--7--5-----|--5--7--5--7--5----5--7--5--------|


                                   (M)
G|----------------------------------|----------------------------------|
D|----------------------------------|----------------------------------|
A|--8--8--8--7----------------------|---8--8--8--7---------------------|
E|--------------0-------------------|--------------0-------------------|


                                   (N)
G|----------------------------------|----------------------------------|
D|----------------------------------|----------------------------------|
A|--8-8-8-7----7-----7-----7-----7--|----8-8-8-7----7-----7-----7------|
E|-----------0-----0-----0-----0----|-------------0-----0-----0--------|


                                   (O)
G|----------------------------------|----------------------------------|
D|----------------------------------|----------------------------------|
A|-------5--7--5--7--5--------------|----------------------------------|
E|----7-----------------5--7--5-----|--5--7--5--7--5----5--7--5--7--5--|


                                   (P)
G|----------------------------------|----------------------------------|
D|----------------------------------|----------------------------------|
A|-------5--7--5--7--5--------------|----------------------------------|
E|----7-----------------5--7--5-----|--5--7--5--7--5----5--7--5--7--5--|


                                   (Q)
G|----------------------------------|----------------------------------|
D|----------------------------------|----------------------------------|
A|-------5--7--5--7--5--------------|----------------------------------|
E|----7-----------------5--7--5-----|--5--7--5--7--5----5--7--5--7--5--|


                                   (R)
G|----------------------------------|----------------------------------|
D|----------------------------------|----------------------------------|
A|-------5--7--5--7--5--------------|----------------------------------|
E|----7-----------------5--7--5-----|--5--7--5--7--5----5--7--5--------|


                                   (S)
G|----------------------------------|----------------------------------|
D|----------------------------------|----------------------------------|
A|--8--8--8--7----------------------|---8--8--8--7---------------------|
E|-------------0--------------------|--------------0-------------------|


                                   (T)
G|----------------------------------|----------------------------------|
D|----------------------------------|----------------------------------|
A|--8-8-8-7----7-----7-----7-----7--|--8-8-8-7----7-----7-----7-----7--|
E|-----------0-----0-----0-----0----|-----------0-----0-----0-----0----|


                                   (U)
G|----------------------------------|----------------------------------|
D|----------------------------------|----------------------------------|
A|--8--8--8--9------9-------9-------|-10-------11-------12\------------|
E|--------------0-------0--------0--|------0--------0------------------|


                                   (V)
G|----------------------------------|----------------------------------|
D|----------------------------------|----------------------------------|
A|----------------------------------|----------------------------------|
E|----6--5----0--6--5----0--6--5----|----0--6--5----0--6--5----0--6--5-|

 Repeat V UNTIL
                                   (W)
G|----------------------------------|----------------------------------|
D|----------------------------------|----------------------------------|
A|-------5--7--5--7--5--------------|----------------------------------|
E|----7-----------------5--7--5-----|--5--7--5--7--5----5--7--5--7--5--|


                                   (X)
G|----------------------------------|----------------------------------|
D|----------------------------------|----------------------------------|
A|-------5--7--5--7--5--------------|----------------------------------|
E|----7-----------------5--7--5-----|--5--7--5--7--5----5--7--5--7--5--|


                                   (Y)
G|----------------------------------|----------------------------------|
D|----------------------------------|----------------------------------|
A|----------------------------------|----------------------------------|
E|---5--7--5--7--5--7--5--7--5--7---|---5--7--5--7--5--7--5--7--5--7---|

 Repeat Y Until The Song Slows Down




BACK TO MENU