Golden Brown


ARTIST: THE STRANGLERS
SONG: GOLDEN BROWN
ALBUM: FRIDAY THE THIRTEENTH
BASSIST: JEAN JACQUES BURNEL
TAB BY: user@johnrosk.softnet.co.uk

PLEASE NOTE THAT THIS SONG IS PLAYED IN A 3/4 & 4/4

TIME SIG` THE SECOND PARTS OF RIFF B & C ARE 4/4

ALL THE REST IS 3/4
			
			(A)
G|----------------------------------|---------------------------------|
D|----------------------------------|---------------------------------|
A|----------------------------------|---------------------------------|
E|---6------------------------------|---1-----------------------------|

			(B)
G|----------------------------------|---------------------------------|
D|----------------------------------|---------------------------------|
A|----------------------------------|---------------------------------|
E|---2------------------------------|-----9------8------6------4------|


REPEAT A, B, A, B

REPEAT A


			(C)
G|----------------------------------|--------------------------------|
D|----------------------------------|-----4------3-------------------|
A|----------------------------------|-------------------6-----4------|
E|--4-------------------------------|--------------------------------|



			(D)
G|----------------------------------|---------------------------------|
D|----------------------------------|---------------------------------|
A|---6------------------------------|----4----------------------------|
E|----------------------------------|---------------------------------|


REPEAT D 2 TIMES

			(E)
G|----------------------------------|---------------------------------|
D|----------------------------------|---------------------------------|
A|---6------------------------------|------4-------------------4------|
E|----------------------------------|----------------6----------------|


REPEAT D 6 TIMES

REPEAT E 2 TIMES

REPEAT D, E, D, E

REPEAT E 2 TIMES

REPEAT D 2 TIMES    


REPEAT A, B, A, B, A, B, A, C  

REPEAT D 10 TIMES

REPEAT A, B, A, B, A, B, A, C  

REPEAT D 5 TIMES

REPEAT E, D

REPEAT E 3 TIMES  

REPEAT A, B, A, B, A, B, A, C 

REPEAT D 5 TIMES

REPEAT E, D

REPEAT E 3 TIMES



			(F)
G|----------------------------------|---------------------------------|
D|----------------------------------|---------------------------------|
A|----------------------------------|---------------------------------|
E|---6------------------------------|---1-----------------------------|


			(G)
G|----------------------------------|---------------------------------|
D|----------------------------------|---------------------------------|
A|----------------------------------|---------------------------------|
E|---2------------------------------|----4----------------------------|


REPEAT F TO G 19 TIMES


			(H)
G|----------------------------------|---------------------------------|
D|----------------------------------|---------------------------------|
A|----------------------------------|---------------------------------|
E|---6------------------------------|---------------------------------|


PLEASE NOTE ON SOME ALBUMS YOU WILL NEED 
TO SHARPEN THE TUNING OF YOUR GUITAR AS THE
SONG IS RECORDED SLIGHTLY SHARP OF TUNE.  



BACK TO MENU