Little Blue Lies


 SONG: LITTLE BLUE LIES
 ARTIST: THE STRANGLERS
 ALBUM: ABOUT TIME
 BASSIST: JEAN JACQUES BURNEL
 TAB BY user@johnrosk.softnet.CO.UK

 R = REST	
 S = SLIDE



G|----------------------------------|---------------------------------|
D|----------------------------------|---------------------------------|
A|----------------------------------|---------------------------------|
E|----------------------------------|------------------------13-S--6--|

				
			(A)
G|----------------------------------|---------------------------------|
D|----------------------------------|---------------------------------|
A|----------------------------------|---------------------------------|
E|---6---6---6---6---6---6---6-S--2-|--2---2---2---2---2---2---2-S--6-|


			(B)
G|----------------------------------|---------------------------------|
D|----------------------------------|---------------------------------|
A|----------------------------------|---------------------------------|
E|---6---6---6---6---6---6---6-S--2-|--2---2---2---2---2---2---2---2--|

				
			(C)
G|----------------------------------|---------------------------------|
D|----------------------------------|---------------------------------|
A|---5---5---5---5---5---5---5---5--|--5---5---5---5---5---5---5---5--|
E|----------------------------------|---------------------------------|


REPEAT C

			(D)
G|----------------------------------|---------------------------------|
D|----------------------------------|---------------------------------|
A|---5---5---5---5---5---5---5---5--|--5---5---5---5---5---5---5---3--|
E|----------------------------------|---------------------------------|



			(E)
G|----------------------------------|---------------------------------|
D|----------------------------------|---------------------------------|
A|-------3---3---3---3---3---3------|---------------------------------|
E|-------------------------------3--|-----3----3---3---3---3---3---3--|

			
			(F)			
G|----------------------------------|---------------------------------|
D|----------------------------------|---------------------------------|
A|----------------------------------|---------------------------------|
E|--6---R-----6---R-----6---6---R---|--9---R-----9---R-----9---8---7--|


REPEAT F


			(G)
G|----------------------------------|---------------------------------|
D|----------------------------------|---------------------------------|
A|----------------------------------|---------------------------------|
E|--6---R-----6---R-----6---6---R---|--9---R-----9---R-----9---9---R--|


						
			(H)
G|----------------------------------|---------------------------------|
D|----------------------------------|---------------------------------|
A|---8---8-------8---8-------8------|--8---8-------8---8-------8------|
E|-----------8-----------8-------8--|----------8-----------8-------8--|



REPEAT F, F, G, H

			(I)
G|----------------------------------|---------------------------------|
D|----------------------------------|---------------------------------|
A|----------------------------------|---------------------------------|
E|--3------3---3---3---3---4-----1--|------1---1---1---1---1---1---1--|


			(J)
G|----------------------------------|---------------------------------|
D|----------------------------------|---------------------------------|
A|----------------------------------|---------------------------------|
E|--3------3---3---3---3---4-----3--|------3---3---3---3---3---3---3--|


			(K)
G|----------------------------------|---------------------------------|
D|----------------------------------|---------------------------------|
A|----------------------------------|--5---5---5---5---5---5---5---5--|
E|---3---3---3---3---3---3---3---3--|---------------------------------|


REPEAT C, C, D, E

REPEAT C, C, D

			(L)
G|----------------------------------|---------------------------------|
D|----------------------------------|---------------------------------|
A|-------3---3---3---3---3---3------|---------------------------------|
E|-------------------------------3--|-----3----3---3---3---3---3---6--|


REPEAT A, B

REPEAT F, F, G, H,

REPEAT F, F, G, H,

REPEAT I, J, K

REPEAT C, C, D, E


			(M)
G|----------------------------------|---------------------------------|
D|----------------------------------|---------------------------------|
A|--7---7---7---7---7---7---7---7---|--7---7---7---7---7---7---7---7--|
E|----------------------------------|---------------------------------|


REPEAT M

			(N)
G|----------------------------------|---------------------------------|
D|----------------------------------|---------------------------------|
A|--7---7---7---7---7---7---7---7---|--7---7---7---7---7---7---7---5--|
E|----------------------------------|---------------------------------|


			(O)
G|----------------------------------|---------------------------------|
D|----------------------------------|---------------------------------|
A|------5---5---5---5---5---5-------|---------------------------------|
E|-------------------------------5--|------5---5---5---5---5---5---8--|



			(P)
G|----------------------------------|---------------------------------|
D|----------------------------------|---------------------------------|
A|----------------------------------|---------------------------------|
E|---8---8---8---8---8---8---8---4--|--4---4---4---4---4---4---4---8--|



			(Q)
G|----------------------------------|---------------------------------|
D|----------------------------------|---------------------------------|
A|----------------------------------|---------------------------------|
E|---8---8---8---8---8---8---8---4--|--4---4---4---4---4---4---4---4--|


REPEAT I, J, K

REPEAT C, C, D, E

REPEAT C, C, D, L

REPEAT A 3 TIMES & HOLD AT THE END




BACK TO MENU