Losers In A Lost Land(Instrumental)


 LOSERS IN A LOST LAND(INSTRUMENTAL)
 
 ARTIST: HUGH CORNWELL/ROBERT WILLIAMS
 ALBUM: NOSFERATU
 BASSIST: HUGH CORNWELL
  TAB BY mousey241@hotmail.com

 
                                   (A)
G|----------------------------------|----------------------------------|
D|----------------------------------|----------------------------------|
A|-------2---1-----------2---1------|-------2---1-----------2---1------|
E|---3-----------1---3-----------1--|---3-----------1---3-----------1--|


                                   (B)
G|----------------------------------|----------------------------------|
D|----------------------------------|----------------------------------|
A|-------2---1-----------2---1------|-------2---1-----------2---1------|
E|---3-----------1---3-----------1--|---3-----------1---3-----------3--|


                                   (C)
G|-------2-------2-------2-------2--|-------2-------2------------------|
D|----------------------------------|----------------------------------|
A|---2-------2-------2-------2------|---2-------2-------2--------------|
E|----------------------------------|-----------------------0---1---2--|


                                   (D)
G|----------------------------------|----------------------------------|
D|----------------------------------|----------------------------------|
A|-------2---1-----------2---1------|-------2---1-----------2---1------|
E|---3-----------1---3-----------1--|---3-----------1---3-----------1--|


                                   (E)
G|----------------------------------|----------------------------------|
D|----------------------------------|----------------------------------|
A|-------2---1-----------2---1------|-------2---1-----------2---1------|
E|---3-----------1---3-----------1--|---3-----------1---3-----------3--|


                                   (F)
G|-------2-------2-------2-------2--|-------2-------2------------------|
D|----------------------------------|----------------------------------|
A|---2-------2-------2-------2------|---2-------2-------2--------------|
E|----------------------------------|-----------------------0---1---2--|


                                   (G)
G|----------------------------------|----------------------------------|
D|----------------------------------|----------------------------------|
A|-------2---1-----------2---1------|-------2---1-----------2---1------|
E|---3-----------1---3-----------1--|---3-----------1---3-----------1--|


                                   (H)
G|----------------------------------|----------------------------------|
D|----------------------------------|----------------------------------|
A|-------2---1-----------2---1------|-------2---1-----------2---1------|
E|---3-----------1---3-----------1--|---3-----------1---3-----------3--|


                                   (I)
G|-------2-------2-------2-------2--|-------2-------2------------------|
D|----------------------------------|----------------------------------|
A|---2-------2-------2-------2------|---2-------2-------2--------------|
E|----------------------------------|-----------------------0---1---2--|


                                   (J)
G|----------------------------------|----------------------------------|
D|----------------------------------|----------------------------------|
A|-------2---1-----------2---1------|-------2---1-----------2---1------|
E|---3-----------1---3-----------1--|---3-----------1---3-----------1--|


                                   (K)
G|----------------------------------|----------------------------------|
D|----------------------------------|----------------------------------|
A|-------2---1-----------2---1------|-------2---1-----------2---1------|
E|---3-----------1---3-----------1--|---3-----------1---3-----------3--|


                                   (L)
G|----------------------------------|----------------------------------|
D|-------9-------9-------9-------9--|---7-------7-------7-------7------|
A|----------------------------------|----------------------------------|
E|---9-------9-------9-------9------|-------7-------7-------7-------7--|


                                   (M)
G|----------------------------------|----------------------------------|
D|-------9-------9-------9-------9--|---7-------7-------7-------7------|
A|----------------------------------|----------------------------------|
E|---9-------9-------9-------9------|-------7-------7-------7-------7--|
			

                                   (N)
G|----------------------------------|----------------------------------|
D|-------5-------5-------5-------5--|---3-------3-------3-------3------|
A|----------------------------------|----------------------------------|
E|---5-------5-------5-------5------|-------3-------3-------3-------3--|


                                   (O)
G|----------------------------------|----------------------------------|
D|-------5-------5-------5-------5--|---3-------3-------3-------3------|
A|----------------------------------|----------------------------------|
E|---5-------5-------5-------5------|-------3-------3-------3-------3--|


                                   (P)
G|----------------------------------|
D|---3-------3-------3--------------|
A|----------------------------------|
E|-------3-------3-------0---1---2--|


                                   (Q)
G|----------------------------------|----------------------------------|
D|----------------------------------|----------------------------------|
A|-------2---1-----------2---1------|-------2---1-----------2---1------|
E|---3-----------1---3-----------1--|---3-----------1---3-----------1--|


                                   (R)
G|----------------------------------|----------------------------------|
D|----------------------------------|----------------------------------|
A|-------2---1-----------2---1------|-------2---1-----------2---1------|
E|---3-----------1---3-----------1--|---3-----------1---3-----------1--|


                                   (S)
G|----------------------------------|----------------------------------|
D|----------------------------------|----------------------------------|
A|-------2---1-----------2---1------|-------2---1-----------2---1------|
E|---3-----------1---3-----------1--|---3-----------1---3-----------1--|


                                   (T)
G|----------------------------------|----------------------------------|
D|----------------------------------|----------------------------------|
A|-------2---1----------------------|-------2---1-----------2---1------|
E|---3------------------------------|---------------1---3--------------|


                                   (U)
G|----------------------------------|----------------------------------|
D|----------------------------------|----------------------------------|
A|-------2---1-----------2---1------|-------2---1-----------2---1------|
E|---3-----------1---3-----------1--|---3-----------1---3-----------1--|


                                   (V)
G|----------------------------------|----------------------------------|
D|----------------------------------|----------------------------------|
A|-------2---1-----------2---1------|-------2---1-----------2---1------|
E|---3-----------1---3-----------1--|---3-----------1---3-----------3--|


                                   (W)
G|----------------------------------|----------------------------------|
D|-------9-------9-------9-------9--|-------9-------9-------9-------9--|
A|----------------------------------|----------------------------------|
E|---9-------9-------9-------9------|---9-------9-------9-------9------|


                                   (X)
G|----------------------------------|----------------------------------|
D|-------9-------9-------9-------9--|-------9-------9-------9-------9--|
A|----------------------------------|----------------------------------|
E|---9-------9-------9-------9------|---9-------9-------9-------9------|


                                   (Y)
G|----------------------------------|----------------------------------|
D|-------7-------7-------7-------7--|-------7-------7-------7-------7--|
A|----------------------------------|----------------------------------|
E|---7-------7-------7-------7------|---7-------7-------7-------7------|


                                   (Z)
G|----------------------------------|----------------------------------|
D|-------7-------7-------7-------7--|-------7-------7-------7-------7--|
A|----------------------------------|----------------------------------|
E|---7-------7-------7-------7------|---7-------7-------7-------7------|


                                   (AA)
G|----------------------------------|----------------------------------|
D|-------5-------5-------5-------5--|-------5-------5-------5-------5--|
A|----------------------------------|----------------------------------|
E|---5-------5-------5-------5------|---5-------5-------5-------5------|


                                   (AB)
G|----------------------------------|----------------------------------|
D|-------5-------5-------5-------5--|-------5-------5-------5-------5--|
A|----------------------------------|----------------------------------|
E|---5-------5-------5-------5------|---5-------5-------5-------5------|


                                   (AC)
G|----------------------------------|----------------------------------|
D|-------3-------3-------3-------3--|-------3-------3------------------|
A|----------------------------------|----------------------------------|
E|---3-------3-------3-------3------|---3-------3-------3---0---1---2--|


                                   (AD)
G|----------------------------------|----------------------------------|
D|----------------------------------|----------------------------------|
A|-------2---1-----------2---1------|-------2---1-----------2---1------|
E|---3-----------1---3-----------1--|---3-----------1---3-----------1--|


                                   (AE)
G|----------------------------------|----------------------------------|
D|----------------------------------|----------------------------------|
A|-------2---1-----------2---1------|-------2---1-----------2---1------|
E|---3-----------1---3-----------1--|---3-----------1---3-----------1--|


                                   (AF)
G|----------------------------------|----------------------------------|
D|----------------------------------|----------------------------------|
A|-------2---1-----------2---1------|-------2---1-----------2---1------|
E|---3-----------1---3-----------1--|---3-----------1---3-----------1--|


                                   (AG)
G|----------------------------------|----------------------------------|
D|----------------------------------|----------------------------------|
A|-------2---1----------------------|-------2---1-----------2---1------|
E|---3------------------------------|---------------1---3-----------1--|


                                   (AH)
G|----------------------------------|----------------------------------|
D|----------------------------------|----------------------------------|
A|-----------------------2---1------|-----------------------2---1------|
E|---------------1---3-----------1--|---3-----------1---3-----------1--|


                                   (AI)
G|----------------------------------|----------------------------------|
D|----------------------------------|----------------------------------|
A|-------2---1-----------2---1------|-------2---1-----------2---1------|
E|---3-----------1---3-----------1--|---3-----------1---3-----------1--|


                                   (AJ)
G|----------------------------------|----------------------------------|
D|----------------------------------|----------------------------------|
A|-------2---1-----------2---1------|-------2---1----------------------|
E|---3-----------1---3-----------1--|---3-----------3------------------|


                                   (AK)
G|----------------------------------|----------------------------------|
D|-------9-------9-------9-------9--|-------9-------9-------9-------9--|
A|----------------------------------|----------------------------------|
E|---9-------9-------9-------9------|---9-------9-------9-------9------|


                                   (AL)
G|----------------------------------|----------------------------------|
D|-------9-------9-------9-------9--|-------9-------9-------9-------9--|
A|----------------------------------|----------------------------------|
E|---9-------9-------9-------9------|---9-------9-------9-------9------|


                                   (AM)
G|----------------------------------|----------------------------------|
D|-------7-------7-------7-------7--|-------7-------7-------7-------7--|
A|----------------------------------|----------------------------------|
E|---7-------7-------7-------7------|---7-------7-------7-------7------|


                                   (AN)
G|----------------------------------|----------------------------------|
D|-------7-------7-------7-------7--|-------7-------7-------7-------7--|
A|----------------------------------|----------------------------------|
E|---7-------7-------7-------7------|---7-------7-------7-------7------|


                                   (AO)
G|----------------------------------|----------------------------------|
D|-------5-------5-------5-------5--|-------5-------5-------5-------5--|
A|----------------------------------|----------------------------------|
E|---5-------5-------5-------5------|---5-------5-------5-------5------|


                                   (AP)
G|----------------------------------|----------------------------------|
D|-------5-------5-------5-------5--|-------5-------5-------5-------5--|
A|----------------------------------|----------------------------------|
E|---5-------5-------5-------5------|---5-------5-------5-------5------|


                                   (AQ)
G|----------------------------------|----------------------------------|
D|-------3-------3-------3-------3--|-------3-------3-------3-------3--|
A|----------------------------------|----------------------------------|
E|---3-------3-------3-------3------|---3-------3-------3-------3------|

			

                                   (AR)
G|----------------------------------|----------------------------------|
D|-------3-------3-------3-------3--|-------3-------3-------3-------3--|
A|----------------------------------|----------------------------------|
E|---3-------3-------3-------3------|---3-------3-------3-------3------|


                                   (AS)
G|----------------------------------|----------------------------------|
D|-------3-------3-------3-------3--|-------3-------3-------3-------3--|
A|----------------------------------|----------------------------------|
E|---3-------3-------3-------3------|---3-------3-------3-------3------|


                                   (AT)
G|----------------------------------|----------------------------------|
D|-------3-------3-------3-------3--|-------3-------3------------------|
A|----------------------------------|----------------------------------|
E|---3-------3-------3-------3------|---3-------3-------3---0---1---2--|


                                   (AU)
G|----------------------------------|----------------------------------|
D|----------------------------------|----------------------------------|
A|-------2---1-----------2---1------|-------2---1-----------2---1------|
E|---3-----------1---3-----------1--|---3-----------1---3-----------1--|


 REPEAT AU UNTIL THE SONG FADES OUT


BACK TO MENU