Mayan Skies


 MAYAN SKIES

 ARTIST: THE STRANGLERS
 ALBUM: DREAMTIME
 BASSIST: JEAN JACQUES BURNEL
 TAB BY mousey241@hotmail.com

 *=HOLD NOTE

 
                                   (A)
G|----------------------------------|----------------------------------|
D|----------------------------------|----------------------------------|
A|--7--7--7---5---5-----------------|--------5---5---5---5---5---5-----|
E|--------------------7--7--7--7--7-|-7--7---------------------------3-|


                                   (B)
G|----------------------------------|----------------------------------|
D|----------------------------------|----------------------------------|
A|--7--7--7---5---5-----------------|--------5---5---5---5---5---5-----|
E|--------------------7--7--7--7--7-|-7--7-----------------------------|


                                   (C)
G|----------------------------------|----------------------------------|
D|----------------------------------|----------------------------------|
A|----------------------------------|----------------------------------|
E|-1---1--1---1---1--1----5---5--5--|-5---5--5----8---8--8----8---8--8-|


                                   (D)
G|----------------------------------|----------------------------------|
D|-------7--------7--------7--------|-----7---------7----5-------------|
A|---7--------7--------7------------|-7-------7---------------7---5----|
E|----------------------------------|----------------------------------|


                                   (E)
G|----------------------------------|----------------------------------|
D|----------------------------------|----------------------------------|
A|------------7----------------5----|------------7----------------5----|
E|--7--0--7-----------7--0--7-------|--7--0--7-----------7--0--7-------|


                                   (F)
G|----------------------------------|----------------------------------|
D|----------------------------------|----------------------------------|
A|------------7----------------5----|------------7----------------5----|
E|--7--0--7-----------7--0--7-------|--7--0--7-----------7--0--7-------|


                                   (G)
G|----------------------------------|----------------------------------|
D|----------------------------------|----------------------------------|
A|------------7----------------5----|------------7----------------5----|
E|--7--0--7-----------7--0--7-------|--7--0--7-----------7--0--7-------|


                                   (H)
G|----------------------------------|----------------------------------|
D|----------------------------------|----------------------------------|
A|------------7----------------5----|------------7----------------5----|
E|--7--0--7-----------7--0--7-------|--7--0--7-----------7--0--7-------|


                                   (I)
G|----------------------------------|----------------------------------|
D|----------------------------------|----------------------------------|
A|------------7----------------5----|------------7----------------5----|
E|--7--0--7-----------7--0--7-------|--7--0--7-----------7--0--7-------|


                                   (J)
G|----------------------------------|----------------------------------|
D|-------7--------7--------7--------|-----7---------7----5-------------|
A|---7--------7--------7------------|-7-------7---------------7---5----|
E|----------------------------------|----------------------------------|


                                   (K)
G|----------------------------------|----------------------------------|
D|----------------------------------|----------------------------------|
A|------------7----------------5----|------------7----------------5----|
E|--7--0--7-----------7--0--7-------|--7--0--7-----------7--0--7-------|


                                   (L)
G|----------------------------------|----------------------------------|
D|----------------------------------|----------------------------------|
A|------------7----------------5----|------------7----------------5----|
E|--7--0--7-----------7--0--7-------|--7--0--7-----------7--0--7-------|


                                   (M)
G|----------------------------------|----------------------------------|
D|----------------------------------|----------------------------------|
A|------------7----------------5----|------------7----------------5----|
E|--7--0--7-----------7--0--7-------|--7--0--7-----------7--0--7-------|
			

                                   (N)
G|----------------------------------|----------------------------------|
D|----------------------------------|----------------------------------|
A|------------7----------------5----|------------7----------------5----|
E|--7--0--7-----------7--0--7-------|--7--0--7-----------7--0--7-------|


                                   (O)
G|----------------------------------|----------------------------------|
D|----------------------------------|----------------------------------|
A|------------7----------------5----|------------7----------------5----|
E|--7--0--7-----------7--0--7-------|--7--0--7-----------7--0--7-------|


                                   (P)
G|----------------------------------|----------------------------------|
D|-------7--------7--------7--------|-----7---------7----5-------------|
A|---7--------7--------7------------|-7-------7---------------7---5----|
E|----------------------------------|----------------------------------|


                                   (Q)
G|----------------------------------|----------------------------------|
D|----------------------------------|----------------------------------|
A|------------7----------------5----|------------7----------------5----|
E|--7--0--7-----------7--0--7-------|--7--0--7-----------7--0--7-------|


                                   (R)
G|----------------------------------|----------------------------------|
D|-------7--------7--------7--------|-----7---------7----5-------------|
A|---7--------7--------7------------|-7-------7---------------7---5----|
E|----------------------------------|----------------------------------|


                                   (S)
G|----------------------------------|----------------------------------|
D|----------------------------------|----------------------------------|
A|------------7----------------5----|------------7----------------5----|
E|--7--0--7-----------7--0--7-------|--7--0--7-----------7--0--7-------|


                                   (T)
G|----------------------------------|----------------------------------|
D|----------------------------------|----------------------------------|
A|----7----7---------7----7---------|----5----5---------5----5---------|
E|----------------------------------|----------------------------------|


                                   (U)
G|----------------------------------|----------------------------------|
D|----------------------------------|----------------------------------|
A|----------------------------------|----5----5-------5----5-----5--6--|
E|----7----7---------7----7---------|-------------------------7--------|


                                   (V)
G|----------------------------------|----------------------------------|
D|----------------------------------|----------------------------------|
A|----7----7---------7----7---------|----5----5---------5----5---------|
E|----------------------------------|----------------------------------|


                                   (W)
G|----------------------------------|----------------------------------|
D|----------------------------------|----------------------------------|
A|----------------------------------|--5---5----5---5--5--7---5--------|
E|----7----7---------7----7---------|----------------------------7---5-|


                                   (X)
G|----------------------------------|----------------------------------|
D|----------------------------------|----------------------------------|
A|------------7----------------5----|------------7----------------5----|
E|--7--0--7-----------7--0--7-------|--7--0--7-----------7--0--7-------|


                                   (Y)
G|----------------------------------|----------------------------------|
D|----------------------------------|----------------------------------|
A|--7--7--7---5---5-----------------|--------5---5---5---5---5---5-----|
E|--------------------7--7--7--7--7-|-7--7---------------------------3-|


                                   (Z)
G|----------------------------------|----------------------------------|
D|----------------------------------|----------------------------------|
A|--7--7--7---5---5-----------------|--------5---5---5---5---5---5-----|
E|--------------------7--7--7--7--7-|-7--7-----------------------------|


                                   (AA)
G|----------------------------------|----------------------------------|
D|----------------------------------|----------------------------------|
A|----------------------------------|----------------------------------|
E|-1---1--1---1---1--1----5---5--5--|-5---5--5----8---8--8----8---8--8-|


                                   (AB)
G|----------------------------------|----------------------------------|
D|-------7--------7--------7--------|-----7---------7----5-------------|
A|---7--------7--------7------------|-7-------7---------------7---5----|
E|----------------------------------|----------------------------------|


                                   (AC)
G|----------------------------------|----------------------------------|
D|----------------------------------|----------------------------------|
A|------------7----------------5----|------------7----------------5----|
E|--7--0--7-----------7--0--7-------|--7--0--7-----------7--0--7-------|


                                   (AD)
G|----------------------------------|----------------------------------|
D|----------------------------------|----------------------------------|
A|----7----7---------7----7---------|----5----5---------5----5---------|
E|----------------------------------|----------------------------------|


                                   (AE)
G|----------------------------------|----------------------------------|
D|----------------------------------|----------------------------------|
A|----------------------------------|----5----5-------5----5-----5--6--|
E|----7----7---------7----7---------|-------------------------7--------|


                                   (AF)
G|----------------------------------|----------------------------------|
D|----------------------------------|----------------------------------|
A|----7----7---------7----7---------|----5----5---------5----5---------|
E|----------------------------------|----------------------------------|


                                   (AG)
G|----------------------------------|----------------------------------|
D|----------------------------------|----------------------------------|
A|----------------------------------|--5---5----5---5--5--7---5--------|
E|----7----7---------7----7---------|----------------------------7---5-|


                                   (AH)
G|----------------------------------|----------------------------------|
D|----------------------------------|----------------------------------|
A|------------7----------------5----|------------7----------------5----|
E|--7--0--7-----------7--0--7-------|--7--0--7-----------7--0--7-------|


                                   (AI)
G|----------------------------------|----------------------------------|
D|----------------------------------|----------------------------------|
A|------------7----------------5----|------------7----------------5----|
E|--7--0--7-----------7--0--7-------|--7--0--7-----------7--0--7-------|


                                   (AJ)
G|----------------------------------|----------------------------------|
D|----------------------------------|----------------------------------|
A|------------7----------------5----|------------7----------------5----|
E|--7--0--7-----------7--0--7-------|--7--0--7-----------7--0--7-------|


                                   (AK)
G|----------------------------------|----------------------------------|
D|---18*----------------------------|----------------------------------|
A|----------------------------------|----------------------------------|
E|----------------------------------|----------------------------------|


BACK TO MENU