Mothra



 MOTHRA

 ARTIST: HUGH CORNWELL/ROBERT WILLIAMS
 ALBUM: NOSFERATU
 BASSIST: HUGH CORNWELL
  TAB BY mousey241@hotmail.com

 I HAVE TRANSCRIBED THIS PART FOR ONE BASS ONLY
 
                                   (A)
G|----------------------------------|----------------------------------|
D|----------------------------------|----------------------------------|
A|---------------------------4--3---|---------------------------4--3---|
E|-12\---2-2---2-2-2-2-2-2----------|---2-2---2-2-2-2-2-2--------------|

                                   (B)
G|----------------------------------|----------------------------------|
D|----------------------------------|----------------------------------|
A|---------------------------4--3---|---------------------------4--3---|
E|---2-2---2-2-2-2-2-2--------------|---2-2---2-2-2-2-2-2--------------|


                                   (C)
G|---------------------5-----5------|---------------------5-----5------|
D|------------------4-----4-----4---|------------------4-----4-----4---|
A|---2-2---2-2----------------------|---2-2---2-2----------------------|
E|----------------------------------|----------------------------------|


                                   (D)
G|---------------------5-----5------|---------------------5-----5------|
D|------------------4-----4-----4---|------------------4-----4-----4---|
A|---2-2---2-2----------------------|---2-2---2-2----------------------|
E|----------------------------------|----------------------------------|


                                   (E)
G|----------------------------------|----------------------------------|
D|----------------------------------|----------------------------------|
A|---------1------------------------|---------1---------------------2--|
E|---0-----------2-----4-----1------|---0-----------2----4-----1-------|


                                   (F)
G|----------------------------------|----------------------------------|
D|----------------------------------|----------------------------------|
A|---------1------------------------|---------1---------------------2--|
E|---0-----------2-----4-----1------|---0-----------2----4-----1-------|


                                   (G)
G|----------------------------------|----------------------------------|
D|----------------------------------|----------------------------------|
A|---------1------------------------|---------1---------------------2--|
E|---0-----------2-----4-----1------|---0-----------2----4-----1-------|


                                   (H)
G|----------------------------------|----------------------------------|
D|----------------------------------|----------------------------------|
A|---------1------------------------|---------1---------------------2--|
E|---0-----------2-----4-----1------|---0-----------2----4-----1-------|


                                   (I)
G|---------------------5-----5------|---------------------5-----5------|
D|------------------4-----4-----4---|------------------4-----4-----4---|
A|---2-2---2-2----------------------|---2-2---2-2----------------------|
E|----------------------------------|----------------------------------|


                                   (J)
G|---------------------5-----5------|---------------------5-----5------|
D|------------------4-----4-----4---|------------------4-----4-----4---|
A|---2-2---2-2----------------------|---2-2---2-2----------------------|
E|----------------------------------|----------------------------------|


                                   (K)
G|----------------------------------|----------------------------------|
D|--------------------5-------------|--------------------5-------------|
A|---------2-----5------------------|---------2-----5------------------|
E|---4----------------------4-------|---4----------------------4-------|


                                   (L)
G|----------------------------------|----------------------------------|
D|--------------------5-------------|--------------------5-------------|
A|---------2-----5------------------|---------2-----5------------------|
E|---4----------------------4-------|---4----------------------4-------|


                                   (M)
G|----------------------------------|----------------------------------|
D|----------------------------------|----------------------------------|
A|----------------------------------|----------------------------------|
E|--2-2----2-2-2----2-2-2----2-2-2--|-2-4-4----4-4-4----4-4-4----4-4-4-|
			

                                   (N)
G|----------------------------------|----------------------------------|
D|----------------------------------|----------------------------------|
A|----------------------------------|----------------------------------|
E|-4-6-6----6-6-6----6-6-6----6-6-6-|-6-7-7----7-7-7----7-7-7----7-7-7-|


                                   (O)
G|----------------------------------|----------------------------------|
D|----------------------------------|----------------------------------|
A|----------------------------------|----------------------------------|
E|--2-2----2-2-2----2-2-2----2-2-2--|-2-4-4----4-4-4----4-4-4----4-4-4-|


                                   (P)
G|----------------------------------|----------------------------------|
D|----------------------------------|----------------------------------|
A|----------------------------------|----------------------------------|
E|-4-6-6----6-6-6----6-6-6----6-6-6-|-6-7-7----7-7-7----7-7-7----7-7-7-|


                                   (Q)
G|----------------------------------|----------------------------------|
D|----------------------------------|----------------------------------|
A|---------1------------------------|---------1---------------------2--|
E|---0-----------2-----4-----1------|---0-----------2----4-----1-------|


                                   (R)
G|----------------------------------|----------------------------------|
D|----------------------------------|----------------------------------|
A|---------1------------------------|---------1---------------------2--|
E|---0-----------2-----4-----1------|---0-----------2----4-----1-------|


                                   (S)
G|----------------------------------|----------------------------------|
D|----------------------------------|----------------------------------|
A|---------1------------------------|---------1---------------------2--|
E|---0-----------2-----4-----1------|---0-----------2----4-----1-------|


                                   (T)
G|----------------------------------|----------------------------------|
D|----------------------------------|----------------------------------|
A|---------1------------------------|---------1---------------------2--|
E|---0-----------2-----4-----1------|---0-----------2----4-----1-------|


                                   (U)
G|---------------------5-----5------|---------------------5-----5------|
D|------------------4-----4-----4---|------------------4-----4-----4---|
A|---2-2---2-2----------------------|---2-2---2-2----------------------|
E|----------------------------------|----------------------------------|


                                   (V)
G|---------------------5-----5------|---------------------5-----5------|
D|------------------4-----4-----4---|------------------4-----4-----4---|
A|---2-2---2-2----------------------|---2-2---2-2----------------------|
E|----------------------------------|----------------------------------|


                                   (W)
G|----------------------------------|---------------------------4------|
D|--------------------5-------------|--------------------5-------------|
A|---------2-----5------------------|---------2-----5------------------|
E|---4----------------------4-------|---4------------------------------|


                                   (X)
G|----------------------------------|---------------------------4------|
D|--------------------5-------------|--------------------5-------------|
A|---------2-----5------------------|---------2-----5------------------|
E|---4----------------------4-------|---4------------------------------|


                                   (Y)
G|----------------------------------|----------------------------------|
D|----------------------------------|----------------------------------|
A|----------------------------------|----------------------------------|
E|--2-2---2-2-2---2-2--3------------|--2-2---2-2-2---2-2--3------------|

                                   (Z)
G|----------------------------------|----------------------------------|
D|----------------------------------|----------------------------------|
A|----------------------------------|----------------------------------|
E|--2-2---2-2-2---2-2--3--4---------|--2-2---2-2-2-2-2-2--3---4--------|


                                   (AA)
G|----------------------------------|----------------------------------|
D|----------------------------------|----------------------------------|
A|----------------------------------|----------------------------------|
E|--2-2---2-2-2-2-2-2--3---4--------|--2-2---2-2-2-2-2-2--3---4--------|

 Repeat Until The Song Fades Out



BACK TO MENU