Pretty Face


 
 PRETTY FACE 

 ARTIST: J.J. BURNEL
 ALBUM: EUROMAN COMETH
 BASSIST: JEAN JACQUES BURNEL
 TAB BY mousey241@hotmail.com


 *=HOLD NOTE

 S=SLIDE
 
                                   (A)
G|----------------------------------|----------------------------------|
D|----------------------------------|----------------------------------|
A|----------------------------------|---------5--3--0--5--3--0--5---3--|
E|-5---0--3--4--5---0--3--4--5---0--|-3--4-----------------------------|
			

                                   (B)
G|----------------------------------|----------------------------------|
D|----------------------------------|----------------------------------|
A|----------------------------------|----------------------------------|
E|----------------------------------|----------------------------12s\--|


                                   (C)
G|----------------------------------|----------------------------------|
D|----------------------------------|----------------------------------|
A|----------------------------------|---------5--3--0--5--3--0--3---5--|
E|-5---0--3--4--5---0--3--4--5---0--|-3--4-----------------------------|


                                   (D)
G|----------------------------------|----------------------------------|
D|----------------------------------|----------------------------------|
A|----------------------------------|----------------------------------|
E|-5---0--3--4--5---0--3--4--5---0--|-3--4--5---0--3--4--5---0--3--4---|


                                   (E)
G|----------------------------------|----------------------------------|
D|----------------------------------|----------------------------------|
A|----------------------------------|----------------------------------|
E|-5---0--3--4--5---0--3--4--5---0--|-3--4--5---0--3--4---3--3---------|


                                   (F)
G|----------------------------------|----------------------------------|
D|----------------------------------|----------------------------------|
A|---------------5--3--0---5--3--0--|----------------------------------|
E|-5---0--3--4----------------------|-5---0--3--4---3--3---------------|


                                   (G)
G|----------------------------------|
D|----------------------------------|
A|---------------5--3--0---5--3--0--|
E|-5---0--3--4----------------------|




                                   (H)
G|----------------------------------|----------------------------------|
D|----------------------------------|----------------------------------|
A|----------------------------------|----------------------------------|
E|-5---0--3--4--5---0--3--4--5---0--|-3--4--5---0--3--4--5---0--3--4---|


                                   (I)
G|----------------------------------|----------------------------------|
D|----------------------------------|----------------------------------|
A|-5--3--0---5--3--0----------------|----------------------------------|
E|---------------------5---0--3--4--|-5---0--3--4--5---0--3--4---------|


                                   (J)
G|----------------------------------|----------------------------------|
D|----------------------------------|----------------------------------|
A|-5--3--0---5--3--0----------------|----------------------------------|
E|---------------------5---0--3--4--|--3--3-------------5---0--3--4----|


                                   (K)
G|----------------------------------|----------------------------------|
D|----------------------------------|----------------------------------|
A|----------------------------------|----------------------3-----------|
E|-5---0--3--4--5---0--3--4---3--3--|-5---0--3--4---0--3---------------|


                                   (L)
G|----------------------------------|----------------------------------|
D|----------------------------------|----------------------------------|
a|----5---5---5---5---5---5---5---5-|--5---3-------3---3---3---3---3---|
E|----------------------------------|----------5-----------------------|


                                   (M)
G|----------------------------------|----------------------------------|
D|----------------------------------|----------------------------------|
A|----5---5---5---5---5---5---5---5-|--5---3---5---3---5---3---5---3---|
E|----------------------------------|----------------------------------|


                                   (N)
G|----------------------------------|----------------------------------|
D|----------------------------------|----------------------------------|
A|----5---3---5---3---5---3---5---3-|--5---3-------3---3---3---3---3---|
E|----------------------------------|----------5-----------------------|


                                   (0)
G|----------------------------------|----------------------------------|
D|----------------------------------|----------------------------------|
A|----5---5---5---5---5---5---5---5-|--5---3---3---3---3---3---3---3---|
E|----------------------------------|----------------------------------|


                                   (P)
G|----------------------------------|----------------------------------|
D|----------------------------------|----------------------------------|
A|----5---5---5---5---5---5---5---5-|--5---3------3---5--3--5--3--5--3-|
E|----------------------------------|----------5-----------------------|


                                   (Q)
G|----------------------------------|----------------------------------|
D|----------------------------------|----------------------------------|
A|----------------------------------|-----------5--3--0---5--3--0------|
E|-5---0--3--4--5---0--3--4--5---0--|-3--4-----------------------------|


                                   (R)
G|----------------------------------|----------------------------------|
D|----------------------------------|----------------------------------|
A|----------------------------------|-----------------3----------------|
E|-5---0--3--4--5---0--3--4--5---0--|-3--4--5---0--3-------------------|


                                   (S)
G|----------------------------------|----------------------------------|
D|----------------------------------|----------------------------------|
A|----5---5---5---5---5---3------3--|---5---3---------------3---5---3--|
E|---------------------------5------|-----------5---3---5--------------|


                                   (T)
G|----------------------------------|----------------------------------|
D|----------------------------------|----------------------------------|
A|----------------------------------|--------------3---5---------------|
E|-5---0--3--4--5---0--3--4--5---0--|-3--4--5--5-----------------------|


                                   (U)
G|----------------------------------|----------------------------------|
D|----------------------------------|----------------------------------|
A|--7---7---7---7---7---7---7---7---|--5---5---5---5---5---5---5---5---|
E|----------------------------------|----------------------------------|


                                   (V)
G|----------------------------------|----------------------------------|
D|----------------------------------|----------------------------------|
A|--7---7---7---7---7---7---7---7---|--8--8---9--9---10--10---11--11---|
E|----------------------------------|----------------------------------|


                                   (W)
G|----------------------------------|----------------------------------|
D|----------------------------------|----------------------------------|
A|----------------------------------|-----------5--3--0---5--3--0------|
E|-5---0--3--4--5---0--3--4--5---0--|-3--4-----------------------------|


                                   (X)
G|----------------------------------|----------------------------------|
D|----------------------------------|----------------------------------|
A|----------------------------------|-----------5--3--0---5--3--0------|
E|-5---0--3--4--5---0--3--4--5---0--|-3--4-----------------------------|


                                   (Y)
G|----------------------------------|----------------------------------|
D|----------------------------------|----------------------------------|
A|----------------------------------|----------------------------------|
E|-5---0--3--4--3--3----------------|-5---0--3--4--5---0--3--4---------|


                                   (Z)
G|----------------------------------|----------------------------------|
D|----------------------------------|----------------------------------|
A|----------------------------------|----------------------------------|
E|-5---0--3--4--3--3----------------|-5*-------------------------------|



BACK TO MENU