Punch And Judy


 PUNCH AND JUDY
 
 ARTIST: THE STRANGLERS
 ALBUM: AURAL SCULPTURE
 BASSIST: JEAN JACQUES BURNEL
 TAB BY mousey241@hotmail.com

 
                                   (A)
G|----------------------------------|----------------------------------|
D|----------------------------------|----------------------------------|
A|----------------------------------|-5-5-5-5-5-5-5-5-5-5-5-5-5-4-5-4--|
E|-3-3-3-3-3-3-3-3-3-3-3-3-3-3-3-3--|----------------------------------|
			

                                   (B)
G|----------------------------------|----------------------------------|
D|----------------------------------|----------------------------------|
A|----------------------------------|-7-7-7-7-7-7-7-7-7---5--5---------|
E|-5-5-5-5-5-5-5-5-5-5-5-5-5-5-5-5--|----------------------------------|


                                   (C)
G|----------------------------------|----------------------------------|
D|----------------------------------|----------------------------------|
A|--------------5--5---4---2--------|--------------5--5---4---2--------|
E|-0--0--3--0-----------------------|-0--0--3--0-----------------------|


                                   (D)
G|----------------------------------|----------------------------------|
D|----------------------------------|----------------------------------|
A|--------------5--5---4---2--------|--------------5--5---4---2--------|
E|-0--0--3--0-----------------------|-0--0--3--0-----------------------|


                                   (E)
G|----------------------------------|----------------------------------|
D|----------------------------------|----------------------------------|
A|--------------5--5---4---2--------|--------------5--5---4---2--------|
E|-0--0--3--0-----------------------|-0--0--3--0-----------------------|


                                   (F)
G|----------------------------------|----------------------------------|
D|----------------------------------|----------------------------------|
A|--------------5--5---4---2--------|--------------5--5---4---2--------|
E|-0--0--3--0-----------------------|-0--0--3--0-----------------------|


                                   (G)
G|----------------------------------|----------------------------------|
D|----------------------------------|----------------------------------|
A|--------------5--5---4---2--------|--------------5--5---4---2--------|
E|-0--0--3--0-----------------------|-0--0--3--0-----------------------|


                                   (H)
G|----------------------------------|----------------------------------|
D|----------------------------------|----------------------------------|
A|--------------5--5---4---2--------|--------------5--5---4---2--------|
E|-0--0--3--0-----------------------|-0--0--3--0-----------------------|


                                   (I)
G|----------------------------------|----------------------------------|
D|--------------5--5---4---2--------|--------------5--5---4---2--------|
A|-0--0--3--0-----------------------|-0--0--3--0-----------------------|
E|----------------------------------|----------------------------------|


                                   (J)
G|----------------------------------|----------------------------------|
D|----------------------------------|----------------------------------|
A|--------------5--5---4---2--------|--------------5--5---4---0--------|
E|-0--0--3--0-----------------------|-0--0--3--0-----------------------|


                                   (K)
G|----------------------------------|----------------------------------|
D|----------------------------------|----------------------------------|
A|-2-2-2-2-2-2-2-2-2-2-2-2-2-2-2-2--|-5-5-5-5-5-5-5-5--0----0--0-------|
E|----------------------------------|----------------------------------|


                                   (L)
G|----------------------------------|----------------------------------|
D|----------------------------------|----------------------------------|
A|--------------5--5---4---2--------|--------------5--5---4---2--------|
E|-0--0--3--0-----------------------|-0--0--3--0-----------------------|


                                   (M)
G|----------------------------------|----------------------------------|
D|----------------------------------|----------------------------------|
A|--------------5--5---4---2--------|--------------5--5---4---2--------|
E|-0--0--3--0-----------------------|-0--0--3--0-----------------------|


                                   (N)
G|----------------------------------|----------------------------------|
D|----------------------------------|----------------------------------|
A|--------------5--5---4---2--------|--------------5--5---4---2--------|
E|-0--0--3--0-----------------------|-0--0--3--0-----------------------|


                                   (O)
G|----------------------------------|----------------------------------|
D|----------------------------------|----------------------------------|
A|--------------5--5---4---2--------|--------------5--5---4---2--------|
E|-0--0--3--0-----------------------|-0--0--3--0-----------------------|


                                   (P)
G|----------------------------------|----------------------------------|
D|----------------------------------|----------------------------------|
A|--------------5--5---4---2--------|--------------5--5---4---2--------|
E|-0--0--3--0-----------------------|-0--0--3--0-----------------------|


                                   (Q)
G|----------------------------------|----------------------------------|
D|----------------------------------|----------------------------------|
A|--------------5--5---4---2--------|--------------5--5---4---2--------|
E|-0--0--3--0-----------------------|-0--0--3--0-----------------------|


                                   (R)
G|----------------------------------|----------------------------------|
D|--------------5--5---4---2--------|--------------5--5---4---2--------|
A|-0--0--3--0-----------------------|-0--0--3--0-----------------------|
E|----------------------------------|----------------------------------|


                                   (S)
G|----------------------------------|----------------------------------|
D|----------------------------------|----------------------------------|
A|--------------5--5---4---2--------|--------------5--5---4---0--------|
E|-0--0--3--0-----------------------|-0--0--3--0-----------------------|


                                   (T)
G|----------------------------------|----------------------------------|
D|----------------------------------|----------------------------------|
A|-2-2-2-2-2-2-2-2-2-2-2-2-2-2-2-2--|-5-5-5-5-5-5-5-5--0----0--0-------|
E|----------------------------------|----------------------------------|


                                   (U)
G|----------------------------------|----------------------------------|
D|----------------------------------|----------------------------------|
A|--------------5--5---4---2--------|--------------5--5---4---2--------|
E|-0--0--3--0-----------------------|-0--0--3--0-----------------------|


                                   (V)
G|----------------------------------|----------------------------------|
D|----------------------------------|----------------------------------|
A|--------------5--5---4---2--------|--------------5--5---4---2--------|
E|-0--0--3--0-----------------------|-0--0--3--0-----------------------|


                                   (W)
G|----------------------------------|----------------------------------|
D|----------------------------------|----------------------------------|
A|----------------------------------|-5-5-5-5-5-5-5-5-5-5-5-5-5-4-5-4--|
E|-3-3-3-3-3-3-3-3-3-3-3-3-3-3-3-3--|----------------------------------|
			

                                   (X)
G|----------------------------------|----------------------------------|
D|----------------------------------|----------------------------------|
A|----------------------------------|-7-7-7-7-7-7-7-7-7---5--5---------|
E|-5-5-5-5-5-5-5-5-5-5-5-5-5-5-5-5--|----------------------------------|


                                   (Y)
G|----------------------------------|----------------------------------|
D|----------------------------------|----------------------------------|
A|--------------5--5---4---2--------|--------------5--5---4---2--------|
E|-0--0--3--0-----------------------|-0--0--3--0-----------------------|


                                   (Z)
G|----------------------------------|----------------------------------|
D|----------------------------------|----------------------------------|
A|--------------5--5---4---2--------|--------------5--5---4---2--------|
E|-0--0--3--0-----------------------|-0--0--3--0-----------------------|


                                   (AA)
G|----------------------------------|----------------------------------|
D|----------------------------------|----------------------------------|
A|--------------5--5---4---2--------|--------------5--5---4---2--------|
E|-0--0--3--0-----------------------|-0--0--3--0-----------------------|


                                   (AB)
G|----------------------------------|----------------------------------|
D|----------------------------------|----------------------------------|
A|--------------5--5---4---2--------|--------------5--5---4---2--------|
E|-0--0--3--0-----------------------|-0--0--3--0-----------------------|


                                   (AC)
G|----------------------------------|----------------------------------|
D|----------------------------------|----------------------------------|
A|--------------5--5---4---2--------|--------------5--5---4---2--------|
E|-0--0--3--0-----------------------|-0--0--3--0-----------------------|


                                   (AD)
G|----------------------------------|----------------------------------|
D|----------------------------------|----------------------------------|
A|--------------5--5---4---2--------|--------------5--5---4---2--------|
E|-0--0--3--0-----------------------|-0--0--3--0-----------------------|


                                   (AE)
G|----------------------------------|----------------------------------|
D|--------------5--5---4---2--------|--------------5--5---4---2--------|
A|-0--0--3--0-----------------------|-0--0--3--0-----------------------|
E|----------------------------------|----------------------------------|


                                   (AF)
G|----------------------------------|----------------------------------|
D|----------------------------------|----------------------------------|
A|--------------5--5---4---2--------|--------------5--5---4---0--------|
E|-0--0--3--0-----------------------|-0--0--3--0-----------------------|


                                   (AG)
G|----------------------------------|----------------------------------|
D|----------------------------------|----------------------------------|
A|-2-2-2-2-2-2-2-2-2-2-2-2-2-2-2-2--|-5-5-5-5-5-5-5-5--0----0--0-------|
E|----------------------------------|----------------------------------|


                                   (AH)
G|----------------------------------|----------------------------------|
D|----------------------------------|----------------------------------|
A|--------------5--5---4---2--------|--------------5--5---4---2--------|
E|-0--0--3--0-----------------------|-0--0--3--0-----------------------|


                                   (AI)
G|----------------------------------|----------------------------------|
D|----------------------------------|----------------------------------|
A|--------------5--5---4---2--------|--------------5--5---4---2--------|
E|-0--0--3--0-----------------------|-0--0--3--0-----------------------|


                                   (AJ)
G|----------------------------------|----------------------------------|
D|----------------------------------|----------------------------------|
A|----------------------------------|-5-5-5-5-5-5-5-5-5-5-5-5-5-4-5-4--|
E|-3-3-3-3-3-3-3-3-3-3-3-3-3-3-3-3--|----------------------------------|
			

                                   (AK)
G|----------------------------------|----------------------------------|
D|----------------------------------|----------------------------------|
A|----------------------------------|-7-7-7-7-7-7-7-7-7---5--5---------|
E|-5-5-5-5-5-5-5-5-5-5-5-5-5-5-5-5--|----------------------------------|


                                   (AL)
G|----------------------------------|----------------------------------|
D|----------------------------------|----------------------------------|
A|--------------5--5---4---2--------|--------------5--5---4---2--------|
E|-0--0--3--0-----------------------|-0--0--3--0-----------------------|


                                   (AM)
G|----------------------------------|----------------------------------|
D|----------------------------------|----------------------------------|
A|--------------5--5---4---2--------|--------------5--5---4---2--------|
E|-0--0--3--0-----------------------|-0--0--3--0-----------------------|


                                   (AN)
G|----------------------------------|----------------------------------|
D|----------------------------------|----------------------------------|
A|----------------------------------|-5-5-5-5-5-5-5-5-5-5-5-5-5-4-5-4--|
E|-3-3-3-3-3-3-3-3-3-3-3-3-3-3-3-3--|----------------------------------|
			

                                   (AO)
G|----------------------------------|----------------------------------|
D|----------------------------------|----------------------------------|
A|----------------------------------|-7-7-7-7-7-7-7-7-7---5--5---------|
E|-5-5-5-5-5-5-5-5-5-5-5-5-5-5-5-5--|----------------------------------|


                                   (AP)
G|----------------------------------|----------------------------------|
D|----------------------------------|----------------------------------|
A|--------------5--5---4---2--------|--------------5--5---4---2--------|
E|-0--0--3--0-----------------------|-0--0--3--0-----------------------|

 REPEAT AP UNTIL THE SONG FADES OUT



BACK TO MENU