RHYTHMIC ITCH


 RHYTHMIC ITCH

 ARTIST: HUGH CORNWELL/ROBERT WILLIAMS
 ALBUM: NOSFERATU
 BASSIST: ROBERT WILLIAMS
 TAB BY mousey241@hotmail.com

 
                                   (A)
G|----------------------------------|----------------------------------|
D|----------------------------------|----------------------------------|
A|---7------------------------------|----------------------------------|
E|-------8----------------10---7----|---5---4------------------1---0---|


                                   (B)
G|----------------------------------|----------------------------------|
D|----------------------------------|----------------------------------|
A|---7------------------------------|----------------------------------|
E|-------8----------------10---7----|---5---4------------------1---0---|


                                   (C)
G|----------------------------------|----------------------------------|
D|----------------------------------|----------------------------------|
A|---7------------------------------|----------------------------------|
E|-------8----------------10---7----|---5---4------------------1---0---|


                                   (D)
G|----------------------------------|----------------------------------|
D|----------------------------------|----------------------------------|
A|---7------------------------------|----------------------------------|
E|-------8----------------10---7----|---5---4------------------1---0---|


                                   (E)
G|----------------------------------|----------------------------------|
D|----------------------------------|----------------------------------|
A|---7------------------------------|----------------------------------|
E|-------8----------------10---7----|---5---4------------------1---0---|


                                   (F)
G|----------------------------------|----------------------------------|
D|----------------------------------|----------------------------------|
A|---7------------------------------|----------------------------------|
E|-------8----------------10---7----|---5---4------------------1---0---|


                                   (G)
G|----------------------------------|----------------------------------|
D|----------------------------------|----------------------------------|
A|---7------------------------------|----------------------------------|
E|-------8----------------10---7----|---5---4------------------1---0---|


                                   (H)
G|----------------------------------|----------------------------------|
D|----------------------------------|----------------------------------|
A|---7------------------------------|----------------------------------|
E|-------8----------------10---7----|---5---4------------------1---0---|


                                   (I)
G|----------------------------------|----------------------------------|
D|----------------------------------|----------------------------------|
A|---7------------------------------|----------------------------------|
E|-------8----------------10---7----|---5---4------------------1---0---|


                                   (J)
G|----------------------------------|----------------------------------|
D|----------------------------------|----------------------------------|
A|---7------------------------------|----------------------------------|
E|-------8----------------10---7----|---5---4------------------1---0---|


                                   (K)
G|----------------------------------|----------------------------------|
D|----------------------------------|----------------------------------|
A|---7------------------------------|----------------------------------|
E|-------8----------------10---7----|---5---4------------------1---0---|


                                   (L)
G|----------------------------------|----------------------------------|
D|----------------------------------|----------------------------------|
A|---7------------------------------|----------------------------------|
E|-------8----------------10---7----|---5---4------------------1---0---|


                                   (M)
G|----------------------------------|----------------------------------|
D|----------------------------------|----------------------------------|
A|--7---7---7-----------------------|----------------------------------|
E|--------------8---8---8---8---8---|--10--10--10---7---7---7---7---7--|
			

                                   (N)
G|----------------------------------|----------------------------------|
D|----------------------------------|----------------------------------|
A|----------------------------------|----------------------------------|
E|--5---5---5---4---4---4---4---4---|--1---1---1---0---0---0---0---0---|


                                   (O)
G|----------------------------------|----------------------------------|
D|----------------------------------|----------------------------------|
A|--7---7---7-----------------------|----------------------------------|
E|--------------8---8---8---8---8---|--10--10--10---7---7---7---7---7--|
			

                                   (P)
G|----------------------------------|----------------------------------|
D|----------------------------------|----------------------------------|
A|----------------------------------|----------------------------------|
E|--5---5---5---4---4---4---4---4---|--1---1---1---0---0---0---0---0---|


                                   (Q)
G|----------------------------------|----------------------------------|
D|----------------------------------|----------------------------------|
A|--7---7---7-----------------------|----------------------------------|
E|--------------8---8---8---8---8---|--10--10--10---7---7---7---7---7--|
			

                                   (R)
G|----------------------------------|----------------------------------|
D|----------------------------------|----------------------------------|
A|----------------------------------|----------------------------------|
E|--5---5---5---4---4---4---4---4---|--1---1---1---0---0---0---0---0---|


                                   (S)
G|----------------------------------|----------------------------------|
D|----------------------------------|----------------------------------|
A|--7---7---7-----------------------|----------------------------------|
E|--------------8---8---8---8---8---|--10--10--10---7---7---7---7---7--|
			

                                   (T)
G|----------------------------------|----------------------------------|
D|----------------------------------|----------------------------------|
A|----------------------------------|----------------------------------|
E|--5---5---5---4---4---4---4---4---|--1---1---1---0---0---0---0---0---|


                                   (U)
G|----------------------------------|----------------------------------|
D|----------------------------------|----------------------------------|
A|--7---7---7-----------------------|----------------------------------|
E|--------------8---8---8---8---8---|--10--10--10---7---7---7---7---7--|
			

                                   (V)
G|----------------------------------|----------------------------------|
D|----------------------------------|----------------------------------|
A|----------------------------------|----------------------------------|
E|--5---5---5---4---4---4---4---4---|--1---1---1---0---0---0---0---0---|

SONG STARTS TO FADE OUT
                                   (W)
G|----------------------------------|----------------------------------|
D|----------------------------------|----------------------------------|
A|--7---7---7-----------------------|----------------------------------|
E|--------------8---8---8---8---8---|--10--10--10---7---7---7---7---7--|
			

                                   (X)
G|----------------------------------|----------------------------------|
D|----------------------------------|----------------------------------|
A|----------------------------------|----------------------------------|
E|--5---5---5---4---4---4---4---4---|--1---1---1---0---0---0---0---0---|




BACK TO MENU