Shut Up



 SHUT UP
 
 ARTIST: THE STRANGLERS 
 ALBUM: OFF THE BEATEN TRACK
 BASSIST: JEAN JACQUES BURNEL
 TAB BY mousey241@hotmail.com

 *=HOLD NOTE
                                    (A)
G|-----------------------0--2--3-----|--2--3--2--2--0-----------4-------|
D|--------------0--2--3--------------|-----------------3--5--3--2-------|
A|-----0--2--3-----------------------|----------------------------------|
E|--3--------------------------------|----------------------------------|
			

                                   (B)
G|----------------------------------|----------------------------------|
D|----------------------------------|----------------------------------|
A|-3-3-3-3-3-3-3-3------------------|-1-1-1-1-1-1-1-1--3-3-3-3-3-3-3-3-|
E|------------------3-3-3-3-3-3-3-3-|----------------------------------|


                                   (C)
G|----------------------------------|----------------------------------|
D|----------------------------------|----------------------------------|
A|-3-3-3-3-3-3-3-3------------------|-1-1-1-1-1-1-1-1--3-3-3-3-3-3-3-3-|
E|------------------3-3-3-3-3-3-3-3-|----------------------------------|


                                   (D)
G|----------------------------------|----------------------------------|
D|----------------------------------|----------------------------------|
A|-----------------------------3--1-|-----------------------------3--1-|
E|-3--1---3--1---3--1---3--1--------|-3--1---3--1---3--1---3--1--------|


                                   (E)
G|----------------------------------|----------------------------------|
D|----------------------------------|----------------------------------|
A|----------------------------------|-1-1-1-1-1-1-1-1------------------|
E|-3--1---3--1---3--1---3--1---3--1-|------------------1-1-1-1-1-1-1-1-|


                                   (F)
G|----------------------------------|----------------------------------|
D|----------------------------------|----------------------------------|
A|-3-3-3-3-3-3-3-3------------------|-1-1-1-1-1-1-1-1--3-3-3-3-3-3-3-3-|
E|------------------3-3-3-3-3-3-3-3-|----------------------------------|


                                   (G)
G|----------------------------------|----------------------------------|
D|----------------------------------|----------------------------------|
A|-3-3-3-3-3-3-3-3------------------|-1-1-1-1-1-1-1-1--3-3-3-3-3-3-3-3-|
E|------------------3-3-3-3-3-3-3-3-|----------------------------------|


                                   (H)
G|----------------------------------|----------------------------------|
D|----------------------------------|----------------------------------|
A|-----------------------------3--1-|-----------------------------3--1-|
E|-3--1---3--1---3--1---3--1--------|-3--1---3--1---3--1---3--1--------|


                                   (I)
G|----------------------------------|----------------------------------|
D|----------------------------------|----------------------------------|
A|----------------------------------|-1-1-1-1-1-1-1-1------------------|
E|-3--1---3--1---3--1---3--1---3--1-|------------------1-1-1-1-1-1-1-1-|


                                   (J)
G|----------------------------------|----------------------------------|
D|----------------------------------|----------------------------------|
A|----------------------------------|-1-1-1-1-1-1-1-1------------------|
E|-3-3-3-3-3-3-3-3--3-3-3-3-3-3-3-3-|------------------1-1-1-1-1-1-1-1-|


                                   (K)
G|----------------------------------|----------------------------------|
D|----------------------------------|----------------------------------|
A|----------------------------------|-1-1-1-1-1-1-1-1------------------|
E|-3-3-3-3-3-3-3-3--3-3-3-3-3-3-3-3-|------------------1-1-1-1-1-1-1-1-|


                                   (L)
G|----------------------------------|
D|----------------------------------|
A|--3--1*---------------------------|
E|----------------------------------|


BACK TO MENU